ISO-10303-21;
HEADER;
FILE_DESCRIPTION(('CATIA V5 STEP Exchange'),'2;1');

FILE_NAME('C:\\Users\\godef\\Documents\\PV3e Saison 2018\\CAO\\transmission_roue_libre\\step\\capot_droit.stp','2018-06-03T13:08:05+00:00',('none'),('none'),'CATIA Version 5 Release 20 GA (IN-10)','CATIA V5 STEP AP203','none');

FILE_SCHEMA(('CONFIG_CONTROL_DESIGN'));

ENDSEC;
/* file written by CATIA V5R20 */
DATA;
#5=PRODUCT('Capot_axe_roue_droit','','',(#2)) ;
#1=APPLICATION_CONTEXT('configuration controlled 3D design of mechanical parts and assemblies') ;
#14=PRODUCT_DEFINITION('',' ',#6,#3) ;
#16=SECURITY_CLASSIFICATION(' ',' ',#15) ;
#15=SECURITY_CLASSIFICATION_LEVEL('unclassified') ;
#47=CARTESIAN_POINT(' ',(0.,0.,0.)) ;
#52=CARTESIAN_POINT('Axis2P3D Location',(658.170410156,-106.6,82.3890537966)) ;
#57=CARTESIAN_POINT('Line Origine',(655.976453751,-111.344999999,81.1904899501)) ;
#61=CARTESIAN_POINT('Vertex',(655.976453751,-113.,81.1904899501)) ;
#63=CARTESIAN_POINT('Vertex',(655.976453751,-106.5,81.1904899501)) ;
#66=CARTESIAN_POINT('Axis2P3D Location',(658.170410156,-113.,82.3890537966)) ;
#70=CARTESIAN_POINT('Vertex',(660.364366561,-113.,83.5876176431)) ;
#73=CARTESIAN_POINT('Line Origine',(660.364366561,-111.344999999,83.5876176431)) ;
#77=CARTESIAN_POINT('Vertex',(660.364366561,-106.5,83.5876176431)) ;
#80=CARTESIAN_POINT('Axis2P3D Location',(658.170410156,-106.5,82.3890537966)) ;
#92=CARTESIAN_POINT('Axis2P3D Location',(658.170410156,-113.,82.3890537966)) ;
#97=CARTESIAN_POINT('Axis2P3D Location',(658.170410156,-106.5,82.3890537966)) ;
#109=CARTESIAN_POINT('Axis2P3D Location',(662.170410156,-113.,87.3890537966)) ;
#114=CARTESIAN_POINT('Line Origine',(662.170410156,-109.75,77.3890537966)) ;
#118=CARTESIAN_POINT('Vertex',(662.170410156,-113.,77.3890537966)) ;
#120=CARTESIAN_POINT('Vertex',(662.170410156,-106.5,77.3890537966)) ;
#123=CARTESIAN_POINT('Line Origine',(662.170410156,-106.5,82.3890537966)) ;
#127=CARTESIAN_POINT('Vertex',(662.170410156,-106.5,87.3890537966)) ;
#130=CARTESIAN_POINT('Line Origine',(662.170410156,-109.75,87.3890537966)) ;
#134=CARTESIAN_POINT('Vertex',(662.170410156,-113.,87.3890537966)) ;
#137=CARTESIAN_POINT('Line Origine',(662.170410156,-113.,82.3890537966)) ;
#149=CARTESIAN_POINT('Axis2P3D Location',(0.,0.,77.3890537966)) ;
#154=CARTESIAN_POINT('Axis2P3D Location',(648.670410156,-114.,77.3890537966)) ;
#158=CARTESIAN_POINT('Vertex',(644.79742681,-113.,77.3890537966)) ;
#160=CARTESIAN_POINT('Vertex',(652.543393502,-113.,77.3890537966)) ;
#163=CARTESIAN_POINT('Line Origine',(639.983918483,-113.,77.3890537966)) ;
#167=CARTESIAN_POINT('Vertex',(635.170410156,-113.,77.3890537966)) ;
#170=CARTESIAN_POINT('Line Origine',(635.170410156,-109.75,77.3890537966)) ;
#174=CARTESIAN_POINT('Vertex',(635.170410156,-106.5,77.3890537966)) ;
#177=CARTESIAN_POINT('Line Origine',(641.920410156,-106.5,77.3890537966)) ;
#181=CARTESIAN_POINT('Vertex',(648.670410156,-106.5,77.3890537966)) ;
#184=CARTESIAN_POINT('Line Origine',(655.420410156,-106.5,77.3890537966)) ;
#189=CARTESIAN_POINT('Line Origine',(657.356901829,-113.,77.3890537966)) ;
#204=CARTESIAN_POINT('Axis2P3D Location',(639.170410156,-106.6,82.3890537966)) ;
#209=CARTESIAN_POINT('Line Origine',(641.364366561,-111.344999999,83.5876176431)) ;
#213=CARTESIAN_POINT('Vertex',(641.364366561,-113.,83.5876176431)) ;
#215=CARTESIAN_POINT('Vertex',(641.364366561,-106.5,83.5876176431)) ;
#218=CARTESIAN_POINT('Axis2P3D Location',(639.170410156,-113.,82.3890537966)) ;
#222=CARTESIAN_POINT('Vertex',(636.976453751,-113.,81.1904899501)) ;
#225=CARTESIAN_POINT('Line Origine',(636.976453751,-111.344999999,81.1904899501)) ;
#229=CARTESIAN_POINT('Vertex',(636.976453751,-106.5,81.1904899501)) ;
#232=CARTESIAN_POINT('Axis2P3D Location',(639.170410156,-106.5,82.3890537966)) ;
#244=CARTESIAN_POINT('Axis2P3D Location',(639.170410156,-113.,82.3890537966)) ;
#249=CARTESIAN_POINT('Axis2P3D Location',(639.170410156,-106.5,82.3890537966)) ;
#261=CARTESIAN_POINT('Axis2P3D Location',(648.670410156,-114.,82.3890537966)) ;
#266=CARTESIAN_POINT('Line Origine',(652.543393502,-113.,82.3890537966)) ;
#270=CARTESIAN_POINT('Vertex',(652.543393502,-113.,87.3890537966)) ;
#273=CARTESIAN_POINT('Axis2P3D Location',(648.670410156,-114.,87.3890537966)) ;
#277=CARTESIAN_POINT('Vertex',(644.79742681,-113.,87.3890537966)) ;
#280=CARTESIAN_POINT('Line Origine',(644.79742681,-113.,82.3890537966)) ;
#292=CARTESIAN_POINT('Axis2P3D Location',(652.543393502,-113.,87.3890537966)) ;
#297=CARTESIAN_POINT('Line Origine',(639.983918483,-113.,87.3890537966)) ;
#301=CARTESIAN_POINT('Vertex',(635.170410156,-113.,87.3890537966)) ;
#304=CARTESIAN_POINT('Line Origine',(635.170410156,-113.,82.3890537966)) ;
#320=CARTESIAN_POINT('Axis2P3D Location',(635.170410156,-113.,87.3890537966)) ;
#325=CARTESIAN_POINT('Line Origine',(635.170410156,-109.75,87.3890537966)) ;
#329=CARTESIAN_POINT('Vertex',(635.170410156,-106.5,87.3890537966)) ;
#332=CARTESIAN_POINT('Line Origine',(635.170410156,-106.5,82.3890537966)) ;
#344=CARTESIAN_POINT('Axis2P3D Location',(662.170410156,-106.5,87.3890537966)) ;
#349=CARTESIAN_POINT('Line Origine',(641.920410156,-106.5,87.3890537966)) ;
#353=CARTESIAN_POINT('Vertex',(648.670410156,-106.5,87.3890537966)) ;
#356=CARTESIAN_POINT('Line Origine',(648.670410156,-106.5,82.3890537966)) ;
#372=CARTESIAN_POINT('Axis2P3D Location',(0.,0.,87.3890537966)) ;
#377=CARTESIAN_POINT('Line Origine',(657.356901829,-113.,87.3890537966)) ;
#382=CARTESIAN_POINT('Line Origine',(655.420410156,-106.5,87.3890537966)) ;
#53=DIRECTION('Axis2P3D Direction',(0.,-1.,0.)) ;
#54=DIRECTION('Axis2P3D XDirection',(0.87758256189,0.,0.479425538604)) ;
#58=DIRECTION('Vector Direction',(0.,-1.,0.)) ;
#67=DIRECTION('Axis2P3D Direction',(0.,-1.,0.)) ;
#74=DIRECTION('Vector Direction',(0.,-1.,0.)) ;
#81=DIRECTION('Axis2P3D Direction',(0.,-1.,0.)) ;
#93=DIRECTION('Axis2P3D Direction',(0.,-1.,0.)) ;
#98=DIRECTION('Axis2P3D Direction',(0.,-1.,0.)) ;
#110=DIRECTION('Axis2P3D Direction',(-1.,0.,0.)) ;
#111=DIRECTION('Axis2P3D XDirection',(0.,1.,0.)) ;
#115=DIRECTION('Vector Direction',(0.,1.,0.)) ;
#124=DIRECTION('Vector Direction',(0.,0.,-1.)) ;
#131=DIRECTION('Vector Direction',(0.,1.,0.)) ;
#138=DIRECTION('Vector Direction',(0.,0.,-1.)) ;
#150=DIRECTION('Axis2P3D Direction',(0.,0.,1.)) ;
#151=DIRECTION('Axis2P3D XDirection',(1.,0.,0.)) ;
#155=DIRECTION('Axis2P3D Direction',(0.,0.,1.)) ;
#164=DIRECTION('Vector Direction',(-1.,0.,0.)) ;
#171=DIRECTION('Vector Direction',(0.,1.,0.)) ;
#178=DIRECTION('Vector Direction',(1.,0.,0.)) ;
#185=DIRECTION('Vector Direction',(-1.,0.,0.)) ;
#190=DIRECTION('Vector Direction',(1.,0.,0.)) ;
#205=DIRECTION('Axis2P3D Direction',(0.,-1.,0.)) ;
#206=DIRECTION('Axis2P3D XDirection',(0.87758256189,0.,0.479425538604)) ;
#210=DIRECTION('Vector Direction',(0.,-1.,0.)) ;
#219=DIRECTION('Axis2P3D Direction',(0.,-1.,0.)) ;
#226=DIRECTION('Vector Direction',(0.,-1.,0.)) ;
#233=DIRECTION('Axis2P3D Direction',(0.,-1.,0.)) ;
#245=DIRECTION('Axis2P3D Direction',(0.,-1.,0.)) ;
#250=DIRECTION('Axis2P3D Direction',(0.,-1.,0.)) ;
#262=DIRECTION('Axis2P3D Direction',(0.,0.,1.)) ;
#263=DIRECTION('Axis2P3D XDirection',(0.968245836552,0.25,0.)) ;
#267=DIRECTION('Vector Direction',(0.,0.,1.)) ;
#274=DIRECTION('Axis2P3D Direction',(0.,0.,1.)) ;
#281=DIRECTION('Vector Direction',(0.,0.,1.)) ;
#293=DIRECTION('Axis2P3D Direction',(-0.,1.,0.)) ;
#294=DIRECTION('Axis2P3D XDirection',(1.,0.,0.)) ;
#298=DIRECTION('Vector Direction',(-1.,0.,0.)) ;
#305=DIRECTION('Vector Direction',(0.,0.,-1.)) ;
#321=DIRECTION('Axis2P3D Direction',(-1.,0.,0.)) ;
#322=DIRECTION('Axis2P3D XDirection',(0.,1.,0.)) ;
#326=DIRECTION('Vector Direction',(0.,1.,0.)) ;
#333=DIRECTION('Vector Direction',(0.,0.,-1.)) ;
#345=DIRECTION('Axis2P3D Direction',(-0.,-1.,-0.)) ;
#346=DIRECTION('Axis2P3D XDirection',(-1.,0.,0.)) ;
#350=DIRECTION('Vector Direction',(1.,0.,0.)) ;
#357=DIRECTION('Vector Direction',(0.,0.,-1.)) ;
#373=DIRECTION('Axis2P3D Direction',(0.,0.,1.)) ;
#374=DIRECTION('Axis2P3D XDirection',(1.,0.,0.)) ;
#378=DIRECTION('Vector Direction',(1.,0.,0.)) ;
#383=DIRECTION('Vector Direction',(-1.,0.,0.)) ;
#48=AXIS2_PLACEMENT_3D(' ',#47,$,$) ;
#55=AXIS2_PLACEMENT_3D('Cylinder Axis2P3D',#52,#53,#54) ;
#68=AXIS2_PLACEMENT_3D('Circle Axis2P3D',#66,#67,$) ;
#82=AXIS2_PLACEMENT_3D('Circle Axis2P3D',#80,#81,$) ;
#94=AXIS2_PLACEMENT_3D('Circle Axis2P3D',#92,#93,$) ;
#99=AXIS2_PLACEMENT_3D('Circle Axis2P3D',#97,#98,$) ;
#112=AXIS2_PLACEMENT_3D('Plane Axis2P3D',#109,#110,#111) ;
#152=AXIS2_PLACEMENT_3D('Plane Axis2P3D',#149,#150,#151) ;
#156=AXIS2_PLACEMENT_3D('Circle Axis2P3D',#154,#155,$) ;
#207=AXIS2_PLACEMENT_3D('Cylinder Axis2P3D',#204,#205,#206) ;
#220=AXIS2_PLACEMENT_3D('Circle Axis2P3D',#218,#219,$) ;
#234=AXIS2_PLACEMENT_3D('Circle Axis2P3D',#232,#233,$) ;
#246=AXIS2_PLACEMENT_3D('Circle Axis2P3D',#244,#245,$) ;
#251=AXIS2_PLACEMENT_3D('Circle Axis2P3D',#249,#250,$) ;
#264=AXIS2_PLACEMENT_3D('Cylinder Axis2P3D',#261,#262,#263) ;
#275=AXIS2_PLACEMENT_3D('Circle Axis2P3D',#273,#274,$) ;
#295=AXIS2_PLACEMENT_3D('Plane Axis2P3D',#292,#293,#294) ;
#323=AXIS2_PLACEMENT_3D('Plane Axis2P3D',#320,#321,#322) ;
#347=AXIS2_PLACEMENT_3D('Plane Axis2P3D',#344,#345,#346) ;
#375=AXIS2_PLACEMENT_3D('Plane Axis2P3D',#372,#373,#374) ;
#40=PRODUCT_DEFINITION_SHAPE(' ',' ',#14) ;
#31=APPROVAL_PERSON_ORGANIZATION(#25,#21,#19) ;
#25=PERSON_AND_ORGANIZATION(#22,#23) ;
#22=PERSON(' ',' ',' ',$,$,$) ;
#23=ORGANIZATION(' ',' ',' ') ;
#21=APPROVAL(#20,' ') ;
#20=APPROVAL_STATUS('not_yet_approved') ;
#19=APPROVAL_ROLE('APPROVER') ;
#13=DATE_AND_TIME(#11,#12) ;
#12=LOCAL_TIME(15,8,4.,#10) ;
#10=COORDINATED_UNIVERSAL_TIME_OFFSET(0,0,.AHEAD.) ;
#86=ORIENTED_EDGE('',*,*,#65,.F.) ;
#87=ORIENTED_EDGE('',*,*,#72,.F.) ;
#88=ORIENTED_EDGE('',*,*,#79,.T.) ;
#89=ORIENTED_EDGE('',*,*,#84,.F.) ;
#103=ORIENTED_EDGE('',*,*,#79,.F.) ;
#104=ORIENTED_EDGE('',*,*,#96,.F.) ;
#105=ORIENTED_EDGE('',*,*,#65,.T.) ;
#106=ORIENTED_EDGE('',*,*,#101,.F.) ;
#143=ORIENTED_EDGE('',*,*,#122,.T.) ;
#144=ORIENTED_EDGE('',*,*,#129,.F.) ;
#145=ORIENTED_EDGE('',*,*,#136,.F.) ;
#146=ORIENTED_EDGE('',*,*,#141,.T.) ;
#195=ORIENTED_EDGE('',*,*,#162,.F.) ;
#196=ORIENTED_EDGE('',*,*,#169,.F.) ;
#197=ORIENTED_EDGE('',*,*,#176,.F.) ;
#198=ORIENTED_EDGE('',*,*,#183,.F.) ;
#199=ORIENTED_EDGE('',*,*,#188,.F.) ;
#200=ORIENTED_EDGE('',*,*,#122,.F.) ;
#201=ORIENTED_EDGE('',*,*,#193,.F.) ;
#238=ORIENTED_EDGE('',*,*,#217,.F.) ;
#239=ORIENTED_EDGE('',*,*,#224,.F.) ;
#240=ORIENTED_EDGE('',*,*,#231,.T.) ;
#241=ORIENTED_EDGE('',*,*,#236,.F.) ;
#255=ORIENTED_EDGE('',*,*,#231,.F.) ;
#256=ORIENTED_EDGE('',*,*,#248,.F.) ;
#257=ORIENTED_EDGE('',*,*,#217,.T.) ;
#258=ORIENTED_EDGE('',*,*,#253,.F.) ;
#286=ORIENTED_EDGE('',*,*,#162,.T.) ;
#287=ORIENTED_EDGE('',*,*,#272,.F.) ;
#288=ORIENTED_EDGE('',*,*,#279,.F.) ;
#289=ORIENTED_EDGE('',*,*,#284,.T.) ;
#310=ORIENTED_EDGE('',*,*,#169,.T.) ;
#311=ORIENTED_EDGE('',*,*,#284,.F.) ;
#312=ORIENTED_EDGE('',*,*,#303,.F.) ;
#313=ORIENTED_EDGE('',*,*,#308,.T.) ;
#316=ORIENTED_EDGE('',*,*,#248,.T.) ;
#317=ORIENTED_EDGE('',*,*,#224,.T.) ;
#338=ORIENTED_EDGE('',*,*,#176,.T.) ;
#339=ORIENTED_EDGE('',*,*,#308,.F.) ;
#340=ORIENTED_EDGE('',*,*,#331,.F.) ;
#341=ORIENTED_EDGE('',*,*,#336,.T.) ;
#362=ORIENTED_EDGE('',*,*,#183,.T.) ;
#363=ORIENTED_EDGE('',*,*,#336,.F.) ;
#364=ORIENTED_EDGE('',*,*,#355,.F.) ;
#365=ORIENTED_EDGE('',*,*,#360,.T.) ;
#368=ORIENTED_EDGE('',*,*,#253,.T.) ;
#369=ORIENTED_EDGE('',*,*,#236,.T.) ;
#388=ORIENTED_EDGE('',*,*,#381,.T.) ;
#389=ORIENTED_EDGE('',*,*,#136,.T.) ;
#390=ORIENTED_EDGE('',*,*,#386,.T.) ;
#391=ORIENTED_EDGE('',*,*,#355,.T.) ;
#392=ORIENTED_EDGE('',*,*,#331,.T.) ;
#393=ORIENTED_EDGE('',*,*,#303,.T.) ;
#394=ORIENTED_EDGE('',*,*,#279,.T.) ;
#398=ORIENTED_EDGE('',*,*,#193,.T.) ;
#399=ORIENTED_EDGE('',*,*,#141,.F.) ;
#400=ORIENTED_EDGE('',*,*,#381,.F.) ;
#401=ORIENTED_EDGE('',*,*,#272,.T.) ;
#404=ORIENTED_EDGE('',*,*,#72,.T.) ;
#405=ORIENTED_EDGE('',*,*,#96,.T.) ;
#409=ORIENTED_EDGE('',*,*,#188,.T.) ;
#410=ORIENTED_EDGE('',*,*,#360,.F.) ;
#411=ORIENTED_EDGE('',*,*,#386,.F.) ;
#412=ORIENTED_EDGE('',*,*,#129,.T.) ;
#415=ORIENTED_EDGE('',*,*,#84,.T.) ;
#416=ORIENTED_EDGE('',*,*,#101,.T.) ;
#318=FACE_BOUND('',#315,.T.) ;
#370=FACE_BOUND('',#367,.T.) ;
#406=FACE_BOUND('',#403,.T.) ;
#417=FACE_BOUND('',#414,.T.) ;
#51=CLOSED_SHELL('Closed Shell',(#91,#108,#148,#203,#243,#260,#291,#319,#343,#371,#396,#407,#418)) ;
#59=VECTOR('Line Direction',#58,1.) ;
#75=VECTOR('Line Direction',#74,1.) ;
#116=VECTOR('Line Direction',#115,1.) ;
#125=VECTOR('Line Direction',#124,1.) ;
#132=VECTOR('Line Direction',#131,1.) ;
#139=VECTOR('Line Direction',#138,1.) ;
#165=VECTOR('Line Direction',#164,1.) ;
#172=VECTOR('Line Direction',#171,1.) ;
#179=VECTOR('Line Direction',#178,1.) ;
#186=VECTOR('Line Direction',#185,1.) ;
#191=VECTOR('Line Direction',#190,1.) ;
#211=VECTOR('Line Direction',#210,1.) ;
#227=VECTOR('Line Direction',#226,1.) ;
#268=VECTOR('Line Direction',#267,1.) ;
#282=VECTOR('Line Direction',#281,1.) ;
#299=VECTOR('Line Direction',#298,1.) ;
#306=VECTOR('Line Direction',#305,1.) ;
#327=VECTOR('Line Direction',#326,1.) ;
#334=VECTOR('Line Direction',#333,1.) ;
#351=VECTOR('Line Direction',#350,1.) ;
#358=VECTOR('Line Direction',#357,1.) ;
#379=VECTOR('Line Direction',#378,1.) ;
#384=VECTOR('Line Direction',#383,1.) ;
#420=ADVANCED_BREP_SHAPE_REPRESENTATION('NONE',(#419),#46) ;
#49=SHAPE_REPRESENTATION(' ',(#48),#46) ;
#91=ADVANCED_FACE('Corps principal',(#90),#56,.F.) ;
#108=ADVANCED_FACE('Corps principal',(#107),#56,.F.) ;
#148=ADVANCED_FACE('Corps principal',(#147),#113,.F.) ;
#203=ADVANCED_FACE('Corps principal',(#202),#153,.F.) ;
#243=ADVANCED_FACE('Corps principal',(#242),#208,.F.) ;
#260=ADVANCED_FACE('Corps principal',(#259),#208,.F.) ;
#291=ADVANCED_FACE('Corps principal',(#290),#265,.F.) ;
#319=ADVANCED_FACE('Corps principal',(#314,#318),#296,.F.) ;
#343=ADVANCED_FACE('Corps principal',(#342),#324,.T.) ;
#371=ADVANCED_FACE('Corps principal',(#366,#370),#348,.F.) ;
#396=ADVANCED_FACE('Corps principal',(#395),#376,.T.) ;
#407=ADVANCED_FACE('Corps principal',(#402,#406),#296,.F.) ;
#418=ADVANCED_FACE('Corps principal',(#413,#417),#348,.F.) ;
#4=APPLICATION_PROTOCOL_DEFINITION('international standard','config_control_design',1994,#1) ;
#32=APPROVAL_DATE_TIME(#13,#21) ;
#419=MANIFOLD_SOLID_BREP('Corps principal',#51) ;
#11=CALENDAR_DATE(2018,3,6) ;
#30=CC_DESIGN_APPROVAL(#21,(#16,#6,#14)) ;
#18=CC_DESIGN_DATE_AND_TIME_ASSIGNMENT(#13,#17,(#16)) ;
#29=CC_DESIGN_DATE_AND_TIME_ASSIGNMENT(#13,#28,(#14)) ;
#17=DATE_TIME_ROLE('classification_date') ;
#28=DATE_TIME_ROLE('creation_date') ;
#27=CC_DESIGN_PERSON_AND_ORGANIZATION_ASSIGNMENT(#25,#26,(#16)) ;
#33=CC_DESIGN_PERSON_AND_ORGANIZATION_ASSIGNMENT(#25,#34,(#6)) ;
#35=CC_DESIGN_PERSON_AND_ORGANIZATION_ASSIGNMENT(#25,#36,(#6,#14)) ;
#37=CC_DESIGN_PERSON_AND_ORGANIZATION_ASSIGNMENT(#25,#38,(#5)) ;
#26=PERSON_AND_ORGANIZATION_ROLE('classification_officer') ;
#34=PERSON_AND_ORGANIZATION_ROLE('design_supplier') ;
#36=PERSON_AND_ORGANIZATION_ROLE('creator') ;
#38=PERSON_AND_ORGANIZATION_ROLE('design_owner') ;
#39=CC_DESIGN_SECURITY_CLASSIFICATION(#16,(#6)) ;
#69=CIRCLE('generated circle',#68,2.5) ;
#83=CIRCLE('generated circle',#82,2.5) ;
#95=CIRCLE('generated circle',#94,2.5) ;
#100=CIRCLE('generated circle',#99,2.5) ;
#157=CIRCLE('generated circle',#156,4.00000000001) ;
#221=CIRCLE('generated circle',#220,2.5) ;
#235=CIRCLE('generated circle',#234,2.5) ;
#247=CIRCLE('generated circle',#246,2.5) ;
#252=CIRCLE('generated circle',#251,2.5) ;
#276=CIRCLE('generated circle',#275,4.00000000001) ;
#421=SHAPE_REPRESENTATION_RELATIONSHIP(' ',' ',#49,#420) ;
#56=CYLINDRICAL_SURFACE('generated cylinder',#55,2.5) ;
#208=CYLINDRICAL_SURFACE('generated cylinder',#207,2.5) ;
#265=CYLINDRICAL_SURFACE('generated cylinder',#264,4.00000000001) ;
#3=DESIGN_CONTEXT(' ',#1,'design') ;
#65=EDGE_CURVE('',#62,#64,#60,.F.) ;
#72=EDGE_CURVE('',#71,#62,#69,.F.) ;
#79=EDGE_CURVE('',#71,#78,#76,.F.) ;
#84=EDGE_CURVE('',#64,#78,#83,.T.) ;
#96=EDGE_CURVE('',#62,#71,#95,.F.) ;
#101=EDGE_CURVE('',#78,#64,#100,.T.) ;
#122=EDGE_CURVE('',#119,#121,#117,.T.) ;
#129=EDGE_CURVE('',#128,#121,#126,.T.) ;
#136=EDGE_CURVE('',#135,#128,#133,.T.) ;
#141=EDGE_CURVE('',#135,#119,#140,.T.) ;
#162=EDGE_CURVE('',#159,#161,#157,.F.) ;
#169=EDGE_CURVE('',#168,#159,#166,.F.) ;
#176=EDGE_CURVE('',#175,#168,#173,.F.) ;
#183=EDGE_CURVE('',#182,#175,#180,.F.) ;
#188=EDGE_CURVE('',#121,#182,#187,.T.) ;
#193=EDGE_CURVE('',#161,#119,#192,.T.) ;
#217=EDGE_CURVE('',#214,#216,#212,.F.) ;
#224=EDGE_CURVE('',#223,#214,#221,.F.) ;
#231=EDGE_CURVE('',#223,#230,#228,.F.) ;
#236=EDGE_CURVE('',#216,#230,#235,.T.) ;
#248=EDGE_CURVE('',#214,#223,#247,.F.) ;
#253=EDGE_CURVE('',#230,#216,#252,.T.) ;
#272=EDGE_CURVE('',#271,#161,#269,.F.) ;
#279=EDGE_CURVE('',#278,#271,#276,.F.) ;
#284=EDGE_CURVE('',#278,#159,#283,.F.) ;
#303=EDGE_CURVE('',#302,#278,#300,.F.) ;
#308=EDGE_CURVE('',#302,#168,#307,.T.) ;
#331=EDGE_CURVE('',#330,#302,#328,.F.) ;
#336=EDGE_CURVE('',#330,#175,#335,.T.) ;
#355=EDGE_CURVE('',#354,#330,#352,.F.) ;
#360=EDGE_CURVE('',#354,#182,#359,.T.) ;
#381=EDGE_CURVE('',#271,#135,#380,.T.) ;
#386=EDGE_CURVE('',#128,#354,#385,.T.) ;
#85=EDGE_LOOP('',(#86,#87,#88,#89)) ;
#102=EDGE_LOOP('',(#103,#104,#105,#106)) ;
#142=EDGE_LOOP('',(#143,#144,#145,#146)) ;
#194=EDGE_LOOP('',(#195,#196,#197,#198,#199,#200,#201)) ;
#237=EDGE_LOOP('',(#238,#239,#240,#241)) ;
#254=EDGE_LOOP('',(#255,#256,#257,#258)) ;
#285=EDGE_LOOP('',(#286,#287,#288,#289)) ;
#309=EDGE_LOOP('',(#310,#311,#312,#313)) ;
#315=EDGE_LOOP('',(#316,#317)) ;
#337=EDGE_LOOP('',(#338,#339,#340,#341)) ;
#361=EDGE_LOOP('',(#362,#363,#364,#365)) ;
#367=EDGE_LOOP('',(#368,#369)) ;
#387=EDGE_LOOP('',(#388,#389,#390,#391,#392,#393,#394)) ;
#397=EDGE_LOOP('',(#398,#399,#400,#401)) ;
#403=EDGE_LOOP('',(#404,#405)) ;
#408=EDGE_LOOP('',(#409,#410,#411,#412)) ;
#414=EDGE_LOOP('',(#415,#416)) ;
#90=FACE_OUTER_BOUND('',#85,.T.) ;
#107=FACE_OUTER_BOUND('',#102,.T.) ;
#147=FACE_OUTER_BOUND('',#142,.T.) ;
#202=FACE_OUTER_BOUND('',#194,.T.) ;
#242=FACE_OUTER_BOUND('',#237,.T.) ;
#259=FACE_OUTER_BOUND('',#254,.T.) ;
#290=FACE_OUTER_BOUND('',#285,.T.) ;
#314=FACE_OUTER_BOUND('',#309,.T.) ;
#342=FACE_OUTER_BOUND('',#337,.T.) ;
#366=FACE_OUTER_BOUND('',#361,.T.) ;
#395=FACE_OUTER_BOUND('',#387,.T.) ;
#402=FACE_OUTER_BOUND('',#397,.T.) ;
#413=FACE_OUTER_BOUND('',#408,.T.) ;
#45=UNCERTAINTY_MEASURE_WITH_UNIT(LENGTH_MEASURE(0.005),#41,'distance_accuracy_value','CONFUSED CURVE UNCERTAINTY') ;
#60=LINE('Line',#57,#59) ;
#76=LINE('Line',#73,#75) ;
#117=LINE('Line',#114,#116) ;
#126=LINE('Line',#123,#125) ;
#133=LINE('Line',#130,#132) ;
#140=LINE('Line',#137,#139) ;
#166=LINE('Line',#163,#165) ;
#173=LINE('Line',#170,#172) ;
#180=LINE('Line',#177,#179) ;
#187=LINE('Line',#184,#186) ;
#192=LINE('Line',#189,#191) ;
#212=LINE('Line',#209,#211) ;
#228=LINE('Line',#225,#227) ;
#269=LINE('Line',#266,#268) ;
#283=LINE('Line',#280,#282) ;
#300=LINE('Line',#297,#299) ;
#307=LINE('Line',#304,#306) ;
#328=LINE('Line',#325,#327) ;
#335=LINE('Line',#332,#334) ;
#352=LINE('Line',#349,#351) ;
#359=LINE('Line',#356,#358) ;
#380=LINE('Line',#377,#379) ;
#385=LINE('Line',#382,#384) ;
#2=MECHANICAL_CONTEXT(' ',#1,'mechanical') ;
#24=PERSONAL_ADDRESS(' ',' ',' ',' ',' ',' ',' ',' ',' ',' ',' ',' ',(#22),' ') ;
#113=PLANE('Plane',#112) ;
#153=PLANE('Plane',#152) ;
#296=PLANE('Plane',#295) ;
#324=PLANE('Plane',#323) ;
#348=PLANE('Plane',#347) ;
#376=PLANE('Plane',#375) ;
#43=PLANE_ANGLE_MEASURE_WITH_UNIT(PLANE_ANGLE_MEASURE(0.0174532925199),#42) ;
#7=PRODUCT_CATEGORY('part',$) ;
#9=PRODUCT_CATEGORY_RELATIONSHIP(' ',' ',#7,#8) ;
#6=PRODUCT_DEFINITION_FORMATION_WITH_SPECIFIED_SOURCE('',' ',#5,.NOT_KNOWN.) ;
#8=PRODUCT_RELATED_PRODUCT_CATEGORY('detail',$,(#5)) ;
#50=SHAPE_DEFINITION_REPRESENTATION(#40,#49) ;
#62=VERTEX_POINT('',#61) ;
#64=VERTEX_POINT('',#63) ;
#71=VERTEX_POINT('',#70) ;
#78=VERTEX_POINT('',#77) ;
#119=VERTEX_POINT('',#118) ;
#121=VERTEX_POINT('',#120) ;
#128=VERTEX_POINT('',#127) ;
#135=VERTEX_POINT('',#134) ;
#159=VERTEX_POINT('',#158) ;
#161=VERTEX_POINT('',#160) ;
#168=VERTEX_POINT('',#167) ;
#175=VERTEX_POINT('',#174) ;
#182=VERTEX_POINT('',#181) ;
#214=VERTEX_POINT('',#213) ;
#216=VERTEX_POINT('',#215) ;
#223=VERTEX_POINT('',#222) ;
#230=VERTEX_POINT('',#229) ;
#271=VERTEX_POINT('',#270) ;
#278=VERTEX_POINT('',#277) ;
#302=VERTEX_POINT('',#301) ;
#330=VERTEX_POINT('',#329) ;
#354=VERTEX_POINT('',#353) ;
#41=(LENGTH_UNIT()NAMED_UNIT(*)SI_UNIT(.MILLI.,.METRE.)) ;
#42=(NAMED_UNIT(*)PLANE_ANGLE_UNIT()SI_UNIT($,.RADIAN.)) ;
#44=(NAMED_UNIT(*)SI_UNIT($,.STERADIAN.)SOLID_ANGLE_UNIT()) ;
#46=(GEOMETRIC_REPRESENTATION_CONTEXT(3)GLOBAL_UNCERTAINTY_ASSIGNED_CONTEXT((#45))GLOBAL_UNIT_ASSIGNED_CONTEXT((#41,#42,#44))REPRESENTATION_CONTEXT(' ',' ')) ;
ENDSEC;
END-ISO-10303-21;
