ISO-10303-21;
HEADER;
FILE_DESCRIPTION(('STEP AP203'),'1');
FILE_NAME('20180608 caches pour plaque de maintien des lentilles.stp','2018-06-08T13:28:31',(' '),(' '),'Spatial InterOp 3D',' ',' ');
FILE_SCHEMA(('CONFIG_CONTROL_DESIGN'));
ENDSEC;
DATA;
#1=DESIGN_CONTEXT('',#27,'design');
#2=APPLICATION_PROTOCOL_DEFINITION('INTERNATIONAL STANDARD','config_control_design',1994,#27);
#3=PRODUCT_CATEGORY_RELATIONSHIP('NONE','NONE',#28,#29);
#4=DATE_AND_TIME(#30,#31);
#5=DATE_TIME_ROLE('creation_date');
#6=DATE_TIME_ROLE('classification_date');
#7=PERSON_AND_ORGANIZATION_ROLE('creator');
#8=PERSON_AND_ORGANIZATION_ROLE('design_supplier');
#9=PERSON_AND_ORGANIZATION_ROLE('classification_officer');
#10=PERSON_AND_ORGANIZATION_ROLE('design_owner');
#11=APPROVAL_PERSON_ORGANIZATION(#32,#33,#34);
#12=APPROVAL_DATE_TIME(#4,#33);
#13=CC_DESIGN_APPROVAL(#33,(#35,#36,#37));
#14=CC_DESIGN_DATE_AND_TIME_ASSIGNMENT(#4,#5,(#37));
#15=CC_DESIGN_DATE_AND_TIME_ASSIGNMENT(#4,#6,(#35));
#16=CC_DESIGN_PERSON_AND_ORGANIZATION_ASSIGNMENT(#32,#10,(#38));
#17=CC_DESIGN_PERSON_AND_ORGANIZATION_ASSIGNMENT(#32,#7,(#37));
#18=CC_DESIGN_PERSON_AND_ORGANIZATION_ASSIGNMENT(#32,#7,(#36));
#19=CC_DESIGN_PERSON_AND_ORGANIZATION_ASSIGNMENT(#32,#8,(#36));
#20=CC_DESIGN_SECURITY_CLASSIFICATION(#35,(#36));
#21=CC_DESIGN_PERSON_AND_ORGANIZATION_ASSIGNMENT(#32,#9,(#35));
#22=SHAPE_DEFINITION_REPRESENTATION(#39,#40);
#23= (GEOMETRIC_REPRESENTATION_CONTEXT(3)GLOBAL_UNCERTAINTY_ASSIGNED_CONTEXT((#43))GLOBAL_UNIT_ASSIGNED_CONTEXT((#45,#46,#47))REPRESENTATION_CONTEXT('NONE','WORKSPACE'));
#27=APPLICATION_CONTEXT('CONFIGURATION CONTROLLED 3D DESIGNS OF MECHANICAL PARTS AND ASSEMBLIES');
#28=PRODUCT_CATEGORY('part','NONE');
#29=PRODUCT_RELATED_PRODUCT_CATEGORY('detail',' ',(#38));
#30=CALENDAR_DATE(2018,8,5);
#31=LOCAL_TIME(15,28,31.0,#49);
#32=PERSON_AND_ORGANIZATION(#50,#51);
#33=APPROVAL(#52,'SOLID MODEL');
#34=APPROVAL_ROLE('APPROVED');
#35=SECURITY_CLASSIFICATION('','',#53);
#36=PRODUCT_DEFINITION_FORMATION_WITH_SPECIFIED_SOURCE(' ','NONE',#38,.NOT_KNOWN.);
#37=PRODUCT_DEFINITION('NONE','NONE',#36,#1);
#38=PRODUCT('1','1','PART-1-DESC',(#54));
#39=PRODUCT_DEFINITION_SHAPE('NONE','NONE',#37);
#40=ADVANCED_BREP_SHAPE_REPRESENTATION('1',(#55,#56),#23);
#43=UNCERTAINTY_MEASURE_WITH_UNIT(LENGTH_MEASURE(1.0E-006),#45,'','');
#45= (CONVERSION_BASED_UNIT('MILLIMETRE',#59)LENGTH_UNIT()NAMED_UNIT(#62));
#46= (NAMED_UNIT(#64)PLANE_ANGLE_UNIT()SI_UNIT($,.RADIAN.));
#47= (NAMED_UNIT(#64)SOLID_ANGLE_UNIT()SI_UNIT($,.STERADIAN.));
#49=COORDINATED_UNIVERSAL_TIME_OFFSET(1,0,.AHEAD.);
#50=PERSON('','UNSPECIFIED',$,$,$,$);
#51=ORGANIZATION('UNSPECIFIED','UNSPECIFIED','UNSPECIFIED');
#52=APPROVAL_STATUS('approved');
#53=SECURITY_CLASSIFICATION_LEVEL('unclassified');
#54=MECHANICAL_CONTEXT('',#27,'mechanical');
#55=MANIFOLD_SOLID_BREP('1',#70);
#56=AXIS2_PLACEMENT_3D('',#71,#72,#73);
#59=LENGTH_MEASURE_WITH_UNIT(LENGTH_MEASURE(1.0),#74);
#62=DIMENSIONAL_EXPONENTS(1.0,0.0,0.0,0.0,0.0,0.0,0.0);
#64=DIMENSIONAL_EXPONENTS(0.0,0.0,0.0,0.0,0.0,0.0,0.0);
#70=CLOSED_SHELL('',(#75,#76,#77,#78,#79,#80));
#71=CARTESIAN_POINT('',(0.0,0.0,0.0));
#72=DIRECTION('',(0.0,0.0,1.0));
#73=DIRECTION('',(1.0,0.0,0.0));
#74= (NAMED_UNIT(#62)LENGTH_UNIT()SI_UNIT(.MILLI.,.METRE.));
#75=ADVANCED_FACE('',(#82,#83),#84,.F.);
#76=ADVANCED_FACE('',(#85,#86),#87,.F.);
#77=ADVANCED_FACE('',(#88,#89),#90,.F.);
#78=ADVANCED_FACE('',(#91,#92),#93,.T.);
#79=ADVANCED_FACE('',(#94,#95),#96,.T.);
#80=ADVANCED_FACE('',(#97,#98),#99,.T.);
#82=FACE_BOUND('',#100,.T.);
#83=FACE_BOUND('',#101,.T.);
#84=CYLINDRICAL_SURFACE('',#102,3.5);
#85=FACE_BOUND('',#103,.T.);
#86=FACE_BOUND('',#104,.T.);
#87=CYLINDRICAL_SURFACE('',#105,6.0);
#88=FACE_BOUND('',#106,.T.);
#89=FACE_OUTER_BOUND('',#107,.T.);
#90=PLANE('',#108);
#91=FACE_BOUND('',#109,.T.);
#92=FACE_BOUND('',#110,.T.);
#93=CYLINDRICAL_SURFACE('',#111,12.0);
#94=FACE_BOUND('',#112,.T.);
#95=FACE_OUTER_BOUND('',#113,.T.);
#96=PLANE('',#114);
#97=FACE_BOUND('',#115,.T.);
#98=FACE_OUTER_BOUND('',#116,.T.);
#99=PLANE('',#117);
#100=EDGE_LOOP('',(#118));
#101=EDGE_LOOP('',(#119));
#102=AXIS2_PLACEMENT_3D('',#120,#121,#122);
#103=EDGE_LOOP('',(#123));
#104=EDGE_LOOP('',(#124));
#105=AXIS2_PLACEMENT_3D('',#125,#126,#127);
#106=EDGE_LOOP('',(#128));
#107=EDGE_LOOP('',(#129));
#108=AXIS2_PLACEMENT_3D('',#130,#131,#132);
#109=EDGE_LOOP('',(#133));
#110=EDGE_LOOP('',(#134));
#111=AXIS2_PLACEMENT_3D('',#135,#136,#137);
#112=EDGE_LOOP('',(#138));
#113=EDGE_LOOP('',(#139));
#114=AXIS2_PLACEMENT_3D('',#140,#141,#142);
#115=EDGE_LOOP('',(#143));
#116=EDGE_LOOP('',(#144));
#117=AXIS2_PLACEMENT_3D('',#145,#146,#147);
#118=ORIENTED_EDGE('',*,*,#148,.F.);
#119=ORIENTED_EDGE('',*,*,#149,.T.);
#120=CARTESIAN_POINT('',(0.0,0.0,-2.5));
#121=DIRECTION('',(0.0,0.0,1.0));
#122=DIRECTION('',(1.0,0.0,0.0));
#123=ORIENTED_EDGE('',*,*,#150,.T.);
#124=ORIENTED_EDGE('',*,*,#151,.F.);
#125=CARTESIAN_POINT('',(0.0,0.0,7.5));
#126=DIRECTION('',(0.0,0.0,1.0));
#127=DIRECTION('',(1.0,0.0,0.0));
#128=ORIENTED_EDGE('',*,*,#149,.F.);
#129=ORIENTED_EDGE('',*,*,#150,.F.);
#130=CARTESIAN_POINT('',(0.0,0.0,5.0));
#131=DIRECTION('',(0.0,0.0,-1.0));
#132=DIRECTION('',(-1.0,0.0,0.0));
#133=ORIENTED_EDGE('',*,*,#152,.F.);
#134=ORIENTED_EDGE('',*,*,#153,.F.);
#135=CARTESIAN_POINT('',(0.0,0.0,5.0));
#136=DIRECTION('',(0.0,0.0,1.0));
#137=DIRECTION('',(1.0,0.0,0.0));
#138=ORIENTED_EDGE('',*,*,#148,.T.);
#139=ORIENTED_EDGE('',*,*,#152,.T.);
#140=CARTESIAN_POINT('',(0.0,0.0,0.0));
#141=DIRECTION('',(0.0,0.0,-1.0));
#142=DIRECTION('',(-1.0,0.0,0.0));
#143=ORIENTED_EDGE('',*,*,#151,.T.);
#144=ORIENTED_EDGE('',*,*,#153,.T.);
#145=CARTESIAN_POINT('',(0.0,0.0,10.0));
#146=DIRECTION('',(0.0,0.0,1.0));
#147=DIRECTION('',(1.0,0.0,0.0));
#148=EDGE_CURVE('',#154,#154,#155,.T.);
#149=EDGE_CURVE('',#156,#156,#157,.T.);
#150=EDGE_CURVE('',#158,#158,#159,.T.);
#151=EDGE_CURVE('',#160,#160,#161,.T.);
#152=EDGE_CURVE('',#162,#162,#163,.T.);
#153=EDGE_CURVE('',#164,#164,#165,.T.);
#154=VERTEX_POINT('',#166);
#155=CIRCLE('',#167,3.5);
#156=VERTEX_POINT('',#168);
#157=CIRCLE('',#169,3.5);
#158=VERTEX_POINT('',#170);
#159=CIRCLE('',#171,6.0);
#160=VERTEX_POINT('',#172);
#161=CIRCLE('',#173,6.0);
#162=VERTEX_POINT('',#174);
#163=CIRCLE('',#175,12.0);
#164=VERTEX_POINT('',#176);
#165=CIRCLE('',#177,12.0);
#166=CARTESIAN_POINT('',(-3.5,-4.28626379701574E-016,0.0));
#167=AXIS2_PLACEMENT_3D('',#178,#179,#180);
#168=CARTESIAN_POINT('',(3.5,0.0,5.0));
#169=AXIS2_PLACEMENT_3D('',#181,#182,#183);
#170=CARTESIAN_POINT('',(6.0,0.0,5.0));
#171=AXIS2_PLACEMENT_3D('',#184,#185,#186);
#172=CARTESIAN_POINT('',(6.0,0.0,10.0));
#173=AXIS2_PLACEMENT_3D('',#187,#188,#189);
#174=CARTESIAN_POINT('',(12.0,0.0,0.0));
#175=AXIS2_PLACEMENT_3D('',#190,#191,#192);
#176=CARTESIAN_POINT('',(12.0,0.0,10.0));
#177=AXIS2_PLACEMENT_3D('',#193,#194,#195);
#178=CARTESIAN_POINT('',(0.0,0.0,0.0));
#179=DIRECTION('',(0.0,-0.0,1.0));
#180=DIRECTION('',(1.0,0.0,0.0));
#181=CARTESIAN_POINT('',(0.0,0.0,5.0));
#182=DIRECTION('',(0.0,-0.0,1.0));
#183=DIRECTION('',(1.0,0.0,0.0));
#184=CARTESIAN_POINT('',(0.0,0.0,5.0));
#185=DIRECTION('',(0.0,0.0,-1.0));
#186=DIRECTION('',(1.0,0.0,0.0));
#187=CARTESIAN_POINT('',(0.0,0.0,10.0));
#188=DIRECTION('',(0.0,0.0,-1.0));
#189=DIRECTION('',(1.0,0.0,0.0));
#190=CARTESIAN_POINT('',(0.0,0.0,0.0));
#191=DIRECTION('',(0.0,0.0,-1.0));
#192=DIRECTION('',(1.0,0.0,0.0));
#193=CARTESIAN_POINT('',(0.0,0.0,10.0));
#194=DIRECTION('',(0.0,0.0,1.0));
#195=DIRECTION('',(1.0,0.0,0.0));
ENDSEC;
END-ISO-10303-21;
