ISO-10303-21;
HEADER;
FILE_DESCRIPTION(('CATIA V5 STEP Exchange'),'2;1');

FILE_NAME('D:\\Utilisateur\\Documents\\Cours IPSA\\A\X2\00E9\X0\ro 2\\A\X2\00E9\X0\roIpsa\\Trident 2\\CU Shayane\\Translateur.stp','2018-06-12T20:32:14+00:00',('none'),('none'),'CATIA Version 5 Release 17 (IN-10)','CATIA V5 STEP AP203','none');

FILE_SCHEMA(('CONFIG_CONTROL_DESIGN'));

ENDSEC;
/* file written by CATIA V5R17 */
DATA;
#5=PRODUCT('Translateur','','',(#2)) ;
#1=APPLICATION_CONTEXT('configuration controlled 3D design of mechanical parts and assemblies') ;
#14=PRODUCT_DEFINITION(' ',' ',#6,#3) ;
#16=SECURITY_CLASSIFICATION(' ',' ',#15) ;
#15=SECURITY_CLASSIFICATION_LEVEL('unclassified') ;
#47=CARTESIAN_POINT(' ',(0.,0.,0.)) ;
#52=CARTESIAN_POINT('Axis2P3D Location',(-2.5,0.,0.)) ;
#57=CARTESIAN_POINT('Line Origine',(-2.5,-2.,0.)) ;
#61=CARTESIAN_POINT('Vertex',(-7.1054273576E-015,-2.,-4.89842541529E-016)) ;
#63=CARTESIAN_POINT('Vertex',(-5.,-2.,0.)) ;
#66=CARTESIAN_POINT('Axis2P3D Location',(-7.1054273576E-015,0.,0.)) ;
#70=CARTESIAN_POINT('Vertex',(-7.1054273576E-015,2.,2.44921270764E-016)) ;
#73=CARTESIAN_POINT('Line Origine',(-2.5,2.,2.44921270764E-016)) ;
#77=CARTESIAN_POINT('Vertex',(-5.,2.,2.44921270764E-016)) ;
#80=CARTESIAN_POINT('Axis2P3D Location',(-5.,0.,0.)) ;
#92=CARTESIAN_POINT('Axis2P3D Location',(-7.1054273576E-015,0.,0.)) ;
#97=CARTESIAN_POINT('Axis2P3D Location',(-5.,0.,0.)) ;
#109=CARTESIAN_POINT('Axis2P3D Location',(-5.,0.,0.)) ;
#119=CARTESIAN_POINT('Axis2P3D Location',(-6.90520613873E-015,0.,6.5)) ;
#124=CARTESIAN_POINT('Line Origine',(-6.90520613873E-015,0.,-6.5)) ;
#128=CARTESIAN_POINT('Vertex',(9.23705556488E-014,-4.,-6.5)) ;
#130=CARTESIAN_POINT('Vertex',(9.23705556488E-014,4.,-6.5)) ;
#133=CARTESIAN_POINT('Line Origine',(-6.90520613873E-015,-4.,0.)) ;
#137=CARTESIAN_POINT('Vertex',(-1.06581410364E-014,-4.,6.5)) ;
#140=CARTESIAN_POINT('Line Origine',(-6.90520613873E-015,0.,6.5)) ;
#144=CARTESIAN_POINT('Vertex',(-1.06581410364E-014,4.,6.5)) ;
#147=CARTESIAN_POINT('Line Origine',(-6.90520613873E-015,4.,0.)) ;
#163=CARTESIAN_POINT('Axis2P3D Location',(4.,0.,0.)) ;
#168=CARTESIAN_POINT('Axis2P3D Location',(4.,0.,0.)) ;
#172=CARTESIAN_POINT('Vertex',(4.,1.75,0.)) ;
#174=CARTESIAN_POINT('Vertex',(4.,-1.75,2.14306111919E-016)) ;
#177=CARTESIAN_POINT('Axis2P3D Location',(4.,0.,0.)) ;
#187=CARTESIAN_POINT('Axis2P3D Location',(7.5,0.,0.)) ;
#192=CARTESIAN_POINT('Line Origine',(7.5,-1.75,2.14306111919E-016)) ;
#196=CARTESIAN_POINT('Vertex',(11.,-1.75,1.76861834639E-015)) ;
#199=CARTESIAN_POINT('Axis2P3D Location',(11.,0.,0.)) ;
#203=CARTESIAN_POINT('Vertex',(11.,1.75,0.)) ;
#206=CARTESIAN_POINT('Line Origine',(7.5,1.75,-4.28612223838E-016)) ;
#218=CARTESIAN_POINT('Axis2P3D Location',(11.,0.,0.)) ;
#230=CARTESIAN_POINT('Axis2P3D Location',(11.,0.,5.)) ;
#235=CARTESIAN_POINT('Line Origine',(11.,0.,5.)) ;
#239=CARTESIAN_POINT('Vertex',(11.,-4.,5.)) ;
#241=CARTESIAN_POINT('Vertex',(11.,4.,5.)) ;
#244=CARTESIAN_POINT('Line Origine',(11.,-4.,0.)) ;
#248=CARTESIAN_POINT('Vertex',(11.,-4.,-5.)) ;
#251=CARTESIAN_POINT('Line Origine',(11.,0.,-5.)) ;
#255=CARTESIAN_POINT('Vertex',(11.,4.,-5.)) ;
#258=CARTESIAN_POINT('Line Origine',(11.,4.,0.)) ;
#274=CARTESIAN_POINT('Axis2P3D Location',(0.,4.,0.)) ;
#279=CARTESIAN_POINT('Line Origine',(6.5,4.,6.5)) ;
#283=CARTESIAN_POINT('Vertex',(13.,4.,6.5)) ;
#286=CARTESIAN_POINT('Line Origine',(13.,4.,5.75)) ;
#290=CARTESIAN_POINT('Vertex',(13.,4.,5.)) ;
#293=CARTESIAN_POINT('Line Origine',(12.,4.,5.)) ;
#298=CARTESIAN_POINT('Line Origine',(12.,4.,-5.)) ;
#302=CARTESIAN_POINT('Vertex',(13.,4.,-5.)) ;
#305=CARTESIAN_POINT('Line Origine',(13.,4.,-5.75)) ;
#309=CARTESIAN_POINT('Vertex',(13.,4.,-6.5)) ;
#312=CARTESIAN_POINT('Line Origine',(6.5,4.,-6.5)) ;
#328=CARTESIAN_POINT('Axis2P3D Location',(0.,-4.,0.)) ;
#333=CARTESIAN_POINT('Line Origine',(6.5,-4.,-6.5)) ;
#337=CARTESIAN_POINT('Vertex',(13.,-4.,-6.5)) ;
#340=CARTESIAN_POINT('Line Origine',(13.,-4.,-5.75)) ;
#344=CARTESIAN_POINT('Vertex',(13.,-4.,-5.)) ;
#347=CARTESIAN_POINT('Line Origine',(12.,-4.,-5.)) ;
#352=CARTESIAN_POINT('Line Origine',(12.,-4.,5.)) ;
#356=CARTESIAN_POINT('Vertex',(13.,-4.,5.)) ;
#359=CARTESIAN_POINT('Line Origine',(13.,-4.,5.75)) ;
#363=CARTESIAN_POINT('Vertex',(13.,-4.,6.5)) ;
#366=CARTESIAN_POINT('Line Origine',(6.5,-4.,6.5)) ;
#382=CARTESIAN_POINT('Axis2P3D Location',(9.23705556488E-014,0.,-6.5)) ;
#387=CARTESIAN_POINT('Line Origine',(13.,0.,-6.5)) ;
#399=CARTESIAN_POINT('Axis2P3D Location',(13.,0.,5.)) ;
#404=CARTESIAN_POINT('Line Origine',(13.,0.,-5.)) ;
#416=CARTESIAN_POINT('Axis2P3D Location',(11.,0.,-5.)) ;
#428=CARTESIAN_POINT('Axis2P3D Location',(13.,0.,5.)) ;
#433=CARTESIAN_POINT('Line Origine',(13.,0.,5.)) ;
#445=CARTESIAN_POINT('Line Origine',(13.,0.,6.5)) ;
#457=CARTESIAN_POINT('Axis2P3D Location',(13.,0.,6.5)) ;
#53=DIRECTION('Axis2P3D Direction',(-1.,0.,0.)) ;
#54=DIRECTION('Axis2P3D XDirection',(0.,-1.,0.)) ;
#58=DIRECTION('Vector Direction',(-1.,0.,0.)) ;
#67=DIRECTION('Axis2P3D Direction',(-1.,0.,0.)) ;
#74=DIRECTION('Vector Direction',(-1.,0.,0.)) ;
#81=DIRECTION('Axis2P3D Direction',(-1.,0.,0.)) ;
#93=DIRECTION('Axis2P3D Direction',(-1.,0.,0.)) ;
#98=DIRECTION('Axis2P3D Direction',(-1.,0.,0.)) ;
#110=DIRECTION('Axis2P3D Direction',(-1.,0.,0.)) ;
#111=DIRECTION('Axis2P3D XDirection',(0.,-1.,0.)) ;
#120=DIRECTION('Axis2P3D Direction',(1.,0.,0.)) ;
#121=DIRECTION('Axis2P3D XDirection',(0.,0.,-1.)) ;
#125=DIRECTION('Vector Direction',(0.,1.,0.)) ;
#134=DIRECTION('Vector Direction',(0.,0.,-1.)) ;
#141=DIRECTION('Vector Direction',(0.,1.,0.)) ;
#148=DIRECTION('Vector Direction',(0.,0.,-1.)) ;
#164=DIRECTION('Axis2P3D Direction',(1.,0.,0.)) ;
#165=DIRECTION('Axis2P3D XDirection',(0.,1.,0.)) ;
#169=DIRECTION('Axis2P3D Direction',(1.,0.,0.)) ;
#178=DIRECTION('Axis2P3D Direction',(1.,0.,0.)) ;
#188=DIRECTION('Axis2P3D Direction',(1.,0.,0.)) ;
#189=DIRECTION('Axis2P3D XDirection',(0.,1.,0.)) ;
#193=DIRECTION('Vector Direction',(1.,0.,0.)) ;
#200=DIRECTION('Axis2P3D Direction',(1.,0.,0.)) ;
#207=DIRECTION('Vector Direction',(1.,0.,0.)) ;
#219=DIRECTION('Axis2P3D Direction',(1.,0.,0.)) ;
#231=DIRECTION('Axis2P3D Direction',(1.,0.,0.)) ;
#232=DIRECTION('Axis2P3D XDirection',(0.,0.,-1.)) ;
#236=DIRECTION('Vector Direction',(0.,1.,0.)) ;
#245=DIRECTION('Vector Direction',(0.,0.,-1.)) ;
#252=DIRECTION('Vector Direction',(0.,1.,0.)) ;
#259=DIRECTION('Vector Direction',(0.,0.,-1.)) ;
#275=DIRECTION('Axis2P3D Direction',(0.,1.,0.)) ;
#276=DIRECTION('Axis2P3D XDirection',(-1.,0.,0.)) ;
#280=DIRECTION('Vector Direction',(-1.,0.,0.)) ;
#287=DIRECTION('Vector Direction',(0.,0.,1.)) ;
#294=DIRECTION('Vector Direction',(-1.,0.,0.)) ;
#299=DIRECTION('Vector Direction',(1.,0.,0.)) ;
#306=DIRECTION('Vector Direction',(0.,0.,1.)) ;
#313=DIRECTION('Vector Direction',(1.,0.,0.)) ;
#329=DIRECTION('Axis2P3D Direction',(0.,1.,0.)) ;
#330=DIRECTION('Axis2P3D XDirection',(-1.,0.,0.)) ;
#334=DIRECTION('Vector Direction',(1.,0.,0.)) ;
#341=DIRECTION('Vector Direction',(0.,0.,1.)) ;
#348=DIRECTION('Vector Direction',(1.,0.,0.)) ;
#353=DIRECTION('Vector Direction',(-1.,0.,0.)) ;
#360=DIRECTION('Vector Direction',(0.,0.,1.)) ;
#367=DIRECTION('Vector Direction',(-1.,0.,0.)) ;
#383=DIRECTION('Axis2P3D Direction',(0.,0.,1.)) ;
#384=DIRECTION('Axis2P3D XDirection',(1.,0.,0.)) ;
#388=DIRECTION('Vector Direction',(0.,1.,0.)) ;
#400=DIRECTION('Axis2P3D Direction',(-1.,0.,0.)) ;
#401=DIRECTION('Axis2P3D XDirection',(0.,0.,1.)) ;
#405=DIRECTION('Vector Direction',(0.,1.,0.)) ;
#417=DIRECTION('Axis2P3D Direction',(0.,0.,1.)) ;
#418=DIRECTION('Axis2P3D XDirection',(1.,0.,0.)) ;
#429=DIRECTION('Axis2P3D Direction',(0.,0.,-1.)) ;
#430=DIRECTION('Axis2P3D XDirection',(-1.,0.,0.)) ;
#434=DIRECTION('Vector Direction',(0.,1.,0.)) ;
#446=DIRECTION('Vector Direction',(0.,1.,0.)) ;
#458=DIRECTION('Axis2P3D Direction',(0.,0.,-1.)) ;
#459=DIRECTION('Axis2P3D XDirection',(-1.,0.,0.)) ;
#48=AXIS2_PLACEMENT_3D(' ',#47,$,$) ;
#55=AXIS2_PLACEMENT_3D('Cylinder Axis2P3D',#52,#53,#54) ;
#68=AXIS2_PLACEMENT_3D('Circle Axis2P3D',#66,#67,$) ;
#82=AXIS2_PLACEMENT_3D('Circle Axis2P3D',#80,#81,$) ;
#94=AXIS2_PLACEMENT_3D('Circle Axis2P3D',#92,#93,$) ;
#99=AXIS2_PLACEMENT_3D('Circle Axis2P3D',#97,#98,$) ;
#112=AXIS2_PLACEMENT_3D('Plane Axis2P3D',#109,#110,#111) ;
#122=AXIS2_PLACEMENT_3D('Plane Axis2P3D',#119,#120,#121) ;
#166=AXIS2_PLACEMENT_3D('Plane Axis2P3D',#163,#164,#165) ;
#170=AXIS2_PLACEMENT_3D('Circle Axis2P3D',#168,#169,$) ;
#179=AXIS2_PLACEMENT_3D('Circle Axis2P3D',#177,#178,$) ;
#190=AXIS2_PLACEMENT_3D('Cylinder Axis2P3D',#187,#188,#189) ;
#201=AXIS2_PLACEMENT_3D('Circle Axis2P3D',#199,#200,$) ;
#220=AXIS2_PLACEMENT_3D('Circle Axis2P3D',#218,#219,$) ;
#233=AXIS2_PLACEMENT_3D('Plane Axis2P3D',#230,#231,#232) ;
#277=AXIS2_PLACEMENT_3D('Plane Axis2P3D',#274,#275,#276) ;
#331=AXIS2_PLACEMENT_3D('Plane Axis2P3D',#328,#329,#330) ;
#385=AXIS2_PLACEMENT_3D('Plane Axis2P3D',#382,#383,#384) ;
#402=AXIS2_PLACEMENT_3D('Plane Axis2P3D',#399,#400,#401) ;
#419=AXIS2_PLACEMENT_3D('Plane Axis2P3D',#416,#417,#418) ;
#431=AXIS2_PLACEMENT_3D('Plane Axis2P3D',#428,#429,#430) ;
#460=AXIS2_PLACEMENT_3D('Plane Axis2P3D',#457,#458,#459) ;
#40=PRODUCT_DEFINITION_SHAPE(' ',' ',#14) ;
#31=APPROVAL_PERSON_ORGANIZATION(#25,#21,#19) ;
#25=PERSON_AND_ORGANIZATION(#22,#23) ;
#22=PERSON(' ',' ',' ',$,$,$) ;
#23=ORGANIZATION(' ',' ',' ') ;
#21=APPROVAL(#20,' ') ;
#20=APPROVAL_STATUS('not_yet_approved') ;
#19=APPROVAL_ROLE('APPROVER') ;
#13=DATE_AND_TIME(#11,#12) ;
#12=LOCAL_TIME(22,32,14.,#10) ;
#10=COORDINATED_UNIVERSAL_TIME_OFFSET(0,0,.AHEAD.) ;
#86=ORIENTED_EDGE('',*,*,#65,.F.) ;
#87=ORIENTED_EDGE('',*,*,#72,.T.) ;
#88=ORIENTED_EDGE('',*,*,#79,.T.) ;
#89=ORIENTED_EDGE('',*,*,#84,.F.) ;
#103=ORIENTED_EDGE('',*,*,#79,.F.) ;
#104=ORIENTED_EDGE('',*,*,#96,.T.) ;
#105=ORIENTED_EDGE('',*,*,#65,.T.) ;
#106=ORIENTED_EDGE('',*,*,#101,.F.) ;
#115=ORIENTED_EDGE('',*,*,#84,.T.) ;
#116=ORIENTED_EDGE('',*,*,#101,.T.) ;
#153=ORIENTED_EDGE('',*,*,#132,.F.) ;
#154=ORIENTED_EDGE('',*,*,#139,.T.) ;
#155=ORIENTED_EDGE('',*,*,#146,.T.) ;
#156=ORIENTED_EDGE('',*,*,#151,.F.) ;
#159=ORIENTED_EDGE('',*,*,#96,.F.) ;
#160=ORIENTED_EDGE('',*,*,#72,.F.) ;
#183=ORIENTED_EDGE('',*,*,#176,.T.) ;
#184=ORIENTED_EDGE('',*,*,#181,.T.) ;
#212=ORIENTED_EDGE('',*,*,#198,.F.) ;
#213=ORIENTED_EDGE('',*,*,#205,.T.) ;
#214=ORIENTED_EDGE('',*,*,#210,.T.) ;
#215=ORIENTED_EDGE('',*,*,#181,.F.) ;
#224=ORIENTED_EDGE('',*,*,#210,.F.) ;
#225=ORIENTED_EDGE('',*,*,#222,.T.) ;
#226=ORIENTED_EDGE('',*,*,#198,.T.) ;
#227=ORIENTED_EDGE('',*,*,#176,.F.) ;
#264=ORIENTED_EDGE('',*,*,#243,.F.) ;
#265=ORIENTED_EDGE('',*,*,#250,.T.) ;
#266=ORIENTED_EDGE('',*,*,#257,.T.) ;
#267=ORIENTED_EDGE('',*,*,#262,.F.) ;
#270=ORIENTED_EDGE('',*,*,#222,.F.) ;
#271=ORIENTED_EDGE('',*,*,#205,.F.) ;
#318=ORIENTED_EDGE('',*,*,#285,.T.) ;
#319=ORIENTED_EDGE('',*,*,#292,.T.) ;
#320=ORIENTED_EDGE('',*,*,#297,.T.) ;
#321=ORIENTED_EDGE('',*,*,#262,.T.) ;
#322=ORIENTED_EDGE('',*,*,#304,.T.) ;
#323=ORIENTED_EDGE('',*,*,#311,.T.) ;
#324=ORIENTED_EDGE('',*,*,#316,.T.) ;
#325=ORIENTED_EDGE('',*,*,#151,.T.) ;
#372=ORIENTED_EDGE('',*,*,#139,.F.) ;
#373=ORIENTED_EDGE('',*,*,#339,.F.) ;
#374=ORIENTED_EDGE('',*,*,#346,.F.) ;
#375=ORIENTED_EDGE('',*,*,#351,.F.) ;
#376=ORIENTED_EDGE('',*,*,#250,.F.) ;
#377=ORIENTED_EDGE('',*,*,#358,.F.) ;
#378=ORIENTED_EDGE('',*,*,#365,.F.) ;
#379=ORIENTED_EDGE('',*,*,#370,.F.) ;
#393=ORIENTED_EDGE('',*,*,#391,.F.) ;
#394=ORIENTED_EDGE('',*,*,#339,.T.) ;
#395=ORIENTED_EDGE('',*,*,#132,.T.) ;
#396=ORIENTED_EDGE('',*,*,#316,.F.) ;
#410=ORIENTED_EDGE('',*,*,#408,.F.) ;
#411=ORIENTED_EDGE('',*,*,#346,.T.) ;
#412=ORIENTED_EDGE('',*,*,#391,.T.) ;
#413=ORIENTED_EDGE('',*,*,#311,.F.) ;
#422=ORIENTED_EDGE('',*,*,#257,.F.) ;
#423=ORIENTED_EDGE('',*,*,#351,.T.) ;
#424=ORIENTED_EDGE('',*,*,#408,.T.) ;
#425=ORIENTED_EDGE('',*,*,#304,.F.) ;
#439=ORIENTED_EDGE('',*,*,#437,.F.) ;
#440=ORIENTED_EDGE('',*,*,#358,.T.) ;
#441=ORIENTED_EDGE('',*,*,#243,.T.) ;
#442=ORIENTED_EDGE('',*,*,#297,.F.) ;
#451=ORIENTED_EDGE('',*,*,#449,.F.) ;
#452=ORIENTED_EDGE('',*,*,#365,.T.) ;
#453=ORIENTED_EDGE('',*,*,#437,.T.) ;
#454=ORIENTED_EDGE('',*,*,#292,.F.) ;
#463=ORIENTED_EDGE('',*,*,#146,.F.) ;
#464=ORIENTED_EDGE('',*,*,#370,.T.) ;
#465=ORIENTED_EDGE('',*,*,#449,.T.) ;
#466=ORIENTED_EDGE('',*,*,#285,.F.) ;
#161=FACE_BOUND('',#158,.T.) ;
#272=FACE_BOUND('',#269,.T.) ;
#51=CLOSED_SHELL('Closed Shell',(#91,#108,#118,#162,#186,#217,#229,#273,#327,#381,#398,#415,#427,#444,#456,#468)) ;
#59=VECTOR('Line Direction',#58,1.) ;
#75=VECTOR('Line Direction',#74,1.) ;
#126=VECTOR('Line Direction',#125,1.) ;
#135=VECTOR('Line Direction',#134,1.) ;
#142=VECTOR('Line Direction',#141,1.) ;
#149=VECTOR('Line Direction',#148,1.) ;
#194=VECTOR('Line Direction',#193,1.) ;
#208=VECTOR('Line Direction',#207,1.) ;
#237=VECTOR('Line Direction',#236,1.) ;
#246=VECTOR('Line Direction',#245,1.) ;
#253=VECTOR('Line Direction',#252,1.) ;
#260=VECTOR('Line Direction',#259,1.) ;
#281=VECTOR('Line Direction',#280,1.) ;
#288=VECTOR('Line Direction',#287,1.) ;
#295=VECTOR('Line Direction',#294,1.) ;
#300=VECTOR('Line Direction',#299,1.) ;
#307=VECTOR('Line Direction',#306,1.) ;
#314=VECTOR('Line Direction',#313,1.) ;
#335=VECTOR('Line Direction',#334,1.) ;
#342=VECTOR('Line Direction',#341,1.) ;
#349=VECTOR('Line Direction',#348,1.) ;
#354=VECTOR('Line Direction',#353,1.) ;
#361=VECTOR('Line Direction',#360,1.) ;
#368=VECTOR('Line Direction',#367,1.) ;
#389=VECTOR('Line Direction',#388,1.) ;
#406=VECTOR('Line Direction',#405,1.) ;
#435=VECTOR('Line Direction',#434,1.) ;
#447=VECTOR('Line Direction',#446,1.) ;
#470=ADVANCED_BREP_SHAPE_REPRESENTATION('NONE',(#469),#46) ;
#49=SHAPE_REPRESENTATION(' ',(#48),#46) ;
#91=ADVANCED_FACE('',(#90),#56,.T.) ;
#108=ADVANCED_FACE('',(#107),#56,.T.) ;
#118=ADVANCED_FACE('',(#117),#113,.T.) ;
#162=ADVANCED_FACE('',(#157,#161),#123,.F.) ;
#186=ADVANCED_FACE('',(#185),#167,.T.) ;
#217=ADVANCED_FACE('',(#216),#191,.F.) ;
#229=ADVANCED_FACE('',(#228),#191,.F.) ;
#273=ADVANCED_FACE('',(#268,#272),#234,.T.) ;
#327=ADVANCED_FACE('',(#326),#278,.T.) ;
#381=ADVANCED_FACE('',(#380),#332,.F.) ;
#398=ADVANCED_FACE('',(#397),#386,.F.) ;
#415=ADVANCED_FACE('',(#414),#403,.F.) ;
#427=ADVANCED_FACE('',(#426),#420,.T.) ;
#444=ADVANCED_FACE('',(#443),#432,.T.) ;
#456=ADVANCED_FACE('',(#455),#403,.F.) ;
#468=ADVANCED_FACE('',(#467),#461,.F.) ;
#4=APPLICATION_PROTOCOL_DEFINITION('international standard','config_control_design',1994,#1) ;
#32=APPROVAL_DATE_TIME(#13,#21) ;
#469=MANIFOLD_SOLID_BREP('Corps principal',#51) ;
#11=CALENDAR_DATE(2018,12,6) ;
#30=CC_DESIGN_APPROVAL(#21,(#16,#6,#14)) ;
#18=CC_DESIGN_DATE_AND_TIME_ASSIGNMENT(#13,#17,(#16)) ;
#29=CC_DESIGN_DATE_AND_TIME_ASSIGNMENT(#13,#28,(#14)) ;
#17=DATE_TIME_ROLE('classification_date') ;
#28=DATE_TIME_ROLE('creation_date') ;
#27=CC_DESIGN_PERSON_AND_ORGANIZATION_ASSIGNMENT(#25,#26,(#16)) ;
#33=CC_DESIGN_PERSON_AND_ORGANIZATION_ASSIGNMENT(#25,#34,(#6)) ;
#35=CC_DESIGN_PERSON_AND_ORGANIZATION_ASSIGNMENT(#25,#36,(#6,#14)) ;
#37=CC_DESIGN_PERSON_AND_ORGANIZATION_ASSIGNMENT(#25,#38,(#5)) ;
#26=PERSON_AND_ORGANIZATION_ROLE('classification_officer') ;
#34=PERSON_AND_ORGANIZATION_ROLE('design_supplier') ;
#36=PERSON_AND_ORGANIZATION_ROLE('creator') ;
#38=PERSON_AND_ORGANIZATION_ROLE('design_owner') ;
#39=CC_DESIGN_SECURITY_CLASSIFICATION(#16,(#6)) ;
#69=CIRCLE('generated circle',#68,2.) ;
#83=CIRCLE('generated circle',#82,2.) ;
#95=CIRCLE('generated circle',#94,2.) ;
#100=CIRCLE('generated circle',#99,2.) ;
#171=CIRCLE('generated circle',#170,1.75) ;
#180=CIRCLE('generated circle',#179,1.75) ;
#202=CIRCLE('generated circle',#201,1.75) ;
#221=CIRCLE('generated circle',#220,1.75) ;
#471=SHAPE_REPRESENTATION_RELATIONSHIP(' ',' ',#49,#470) ;
#56=CYLINDRICAL_SURFACE('generated cylinder',#55,2.) ;
#191=CYLINDRICAL_SURFACE('generated cylinder',#190,1.75) ;
#3=DESIGN_CONTEXT(' ',#1,'design') ;
#65=EDGE_CURVE('',#62,#64,#60,.T.) ;
#72=EDGE_CURVE('',#62,#71,#69,.T.) ;
#79=EDGE_CURVE('',#71,#78,#76,.T.) ;
#84=EDGE_CURVE('',#64,#78,#83,.T.) ;
#96=EDGE_CURVE('',#71,#62,#95,.T.) ;
#101=EDGE_CURVE('',#78,#64,#100,.T.) ;
#132=EDGE_CURVE('',#129,#131,#127,.T.) ;
#139=EDGE_CURVE('',#129,#138,#136,.F.) ;
#146=EDGE_CURVE('',#138,#145,#143,.T.) ;
#151=EDGE_CURVE('',#131,#145,#150,.F.) ;
#176=EDGE_CURVE('',#173,#175,#171,.T.) ;
#181=EDGE_CURVE('',#175,#173,#180,.T.) ;
#198=EDGE_CURVE('',#197,#175,#195,.F.) ;
#205=EDGE_CURVE('',#197,#204,#202,.T.) ;
#210=EDGE_CURVE('',#204,#173,#209,.F.) ;
#222=EDGE_CURVE('',#204,#197,#221,.T.) ;
#243=EDGE_CURVE('',#240,#242,#238,.T.) ;
#250=EDGE_CURVE('',#240,#249,#247,.T.) ;
#257=EDGE_CURVE('',#249,#256,#254,.T.) ;
#262=EDGE_CURVE('',#242,#256,#261,.T.) ;
#285=EDGE_CURVE('',#145,#284,#282,.F.) ;
#292=EDGE_CURVE('',#284,#291,#289,.F.) ;
#297=EDGE_CURVE('',#291,#242,#296,.T.) ;
#304=EDGE_CURVE('',#256,#303,#301,.T.) ;
#311=EDGE_CURVE('',#303,#310,#308,.F.) ;
#316=EDGE_CURVE('',#310,#131,#315,.F.) ;
#339=EDGE_CURVE('',#338,#129,#336,.F.) ;
#346=EDGE_CURVE('',#345,#338,#343,.F.) ;
#351=EDGE_CURVE('',#249,#345,#350,.T.) ;
#358=EDGE_CURVE('',#357,#240,#355,.T.) ;
#365=EDGE_CURVE('',#364,#357,#362,.F.) ;
#370=EDGE_CURVE('',#138,#364,#369,.F.) ;
#391=EDGE_CURVE('',#338,#310,#390,.T.) ;
#408=EDGE_CURVE('',#345,#303,#407,.T.) ;
#437=EDGE_CURVE('',#357,#291,#436,.T.) ;
#449=EDGE_CURVE('',#364,#284,#448,.T.) ;
#85=EDGE_LOOP('',(#86,#87,#88,#89)) ;
#102=EDGE_LOOP('',(#103,#104,#105,#106)) ;
#114=EDGE_LOOP('',(#115,#116)) ;
#152=EDGE_LOOP('',(#153,#154,#155,#156)) ;
#158=EDGE_LOOP('',(#159,#160)) ;
#182=EDGE_LOOP('',(#183,#184)) ;
#211=EDGE_LOOP('',(#212,#213,#214,#215)) ;
#223=EDGE_LOOP('',(#224,#225,#226,#227)) ;
#263=EDGE_LOOP('',(#264,#265,#266,#267)) ;
#269=EDGE_LOOP('',(#270,#271)) ;
#317=EDGE_LOOP('',(#318,#319,#320,#321,#322,#323,#324,#325)) ;
#371=EDGE_LOOP('',(#372,#373,#374,#375,#376,#377,#378,#379)) ;
#392=EDGE_LOOP('',(#393,#394,#395,#396)) ;
#409=EDGE_LOOP('',(#410,#411,#412,#413)) ;
#421=EDGE_LOOP('',(#422,#423,#424,#425)) ;
#438=EDGE_LOOP('',(#439,#440,#441,#442)) ;
#450=EDGE_LOOP('',(#451,#452,#453,#454)) ;
#462=EDGE_LOOP('',(#463,#464,#465,#466)) ;
#90=FACE_OUTER_BOUND('',#85,.T.) ;
#107=FACE_OUTER_BOUND('',#102,.T.) ;
#117=FACE_OUTER_BOUND('',#114,.T.) ;
#157=FACE_OUTER_BOUND('',#152,.T.) ;
#185=FACE_OUTER_BOUND('',#182,.T.) ;
#216=FACE_OUTER_BOUND('',#211,.T.) ;
#228=FACE_OUTER_BOUND('',#223,.T.) ;
#268=FACE_OUTER_BOUND('',#263,.T.) ;
#326=FACE_OUTER_BOUND('',#317,.T.) ;
#380=FACE_OUTER_BOUND('',#371,.T.) ;
#397=FACE_OUTER_BOUND('',#392,.T.) ;
#414=FACE_OUTER_BOUND('',#409,.T.) ;
#426=FACE_OUTER_BOUND('',#421,.T.) ;
#443=FACE_OUTER_BOUND('',#438,.T.) ;
#455=FACE_OUTER_BOUND('',#450,.T.) ;
#467=FACE_OUTER_BOUND('',#462,.T.) ;
#45=UNCERTAINTY_MEASURE_WITH_UNIT(LENGTH_MEASURE(0.005),#41,'distance_accuracy_value','CONFUSED CURVE UNCERTAINTY') ;
#60=LINE('Line',#57,#59) ;
#76=LINE('Line',#73,#75) ;
#127=LINE('Line',#124,#126) ;
#136=LINE('Line',#133,#135) ;
#143=LINE('Line',#140,#142) ;
#150=LINE('Line',#147,#149) ;
#195=LINE('Line',#192,#194) ;
#209=LINE('Line',#206,#208) ;
#238=LINE('Line',#235,#237) ;
#247=LINE('Line',#244,#246) ;
#254=LINE('Line',#251,#253) ;
#261=LINE('Line',#258,#260) ;
#282=LINE('Line',#279,#281) ;
#289=LINE('Line',#286,#288) ;
#296=LINE('Line',#293,#295) ;
#301=LINE('Line',#298,#300) ;
#308=LINE('Line',#305,#307) ;
#315=LINE('Line',#312,#314) ;
#336=LINE('Line',#333,#335) ;
#343=LINE('Line',#340,#342) ;
#350=LINE('Line',#347,#349) ;
#355=LINE('Line',#352,#354) ;
#362=LINE('Line',#359,#361) ;
#369=LINE('Line',#366,#368) ;
#390=LINE('Line',#387,#389) ;
#407=LINE('Line',#404,#406) ;
#436=LINE('Line',#433,#435) ;
#448=LINE('Line',#445,#447) ;
#2=MECHANICAL_CONTEXT(' ',#1,'mechanical') ;
#24=PERSONAL_ADDRESS(' ',' ',' ',' ',' ',' ',' ',' ',' ',' ',' ',' ',(#22),' ') ;
#113=PLANE('Plane',#112) ;
#123=PLANE('Plane',#122) ;
#167=PLANE('Plane',#166) ;
#234=PLANE('Plane',#233) ;
#278=PLANE('Plane',#277) ;
#332=PLANE('Plane',#331) ;
#386=PLANE('Plane',#385) ;
#403=PLANE('Plane',#402) ;
#420=PLANE('Plane',#419) ;
#432=PLANE('Plane',#431) ;
#461=PLANE('Plane',#460) ;
#43=PLANE_ANGLE_MEASURE_WITH_UNIT(PLANE_ANGLE_MEASURE(0.0174532925199),#42) ;
#7=PRODUCT_CATEGORY('part',$) ;
#9=PRODUCT_CATEGORY_RELATIONSHIP(' ',' ',#7,#8) ;
#6=PRODUCT_DEFINITION_FORMATION_WITH_SPECIFIED_SOURCE('',' ',#5,.NOT_KNOWN.) ;
#8=PRODUCT_RELATED_PRODUCT_CATEGORY('detail',$,(#5)) ;
#50=SHAPE_DEFINITION_REPRESENTATION(#40,#49) ;
#62=VERTEX_POINT('',#61) ;
#64=VERTEX_POINT('',#63) ;
#71=VERTEX_POINT('',#70) ;
#78=VERTEX_POINT('',#77) ;
#129=VERTEX_POINT('',#128) ;
#131=VERTEX_POINT('',#130) ;
#138=VERTEX_POINT('',#137) ;
#145=VERTEX_POINT('',#144) ;
#173=VERTEX_POINT('',#172) ;
#175=VERTEX_POINT('',#174) ;
#197=VERTEX_POINT('',#196) ;
#204=VERTEX_POINT('',#203) ;
#240=VERTEX_POINT('',#239) ;
#242=VERTEX_POINT('',#241) ;
#249=VERTEX_POINT('',#248) ;
#256=VERTEX_POINT('',#255) ;
#284=VERTEX_POINT('',#283) ;
#291=VERTEX_POINT('',#290) ;
#303=VERTEX_POINT('',#302) ;
#310=VERTEX_POINT('',#309) ;
#338=VERTEX_POINT('',#337) ;
#345=VERTEX_POINT('',#344) ;
#357=VERTEX_POINT('',#356) ;
#364=VERTEX_POINT('',#363) ;
#41=(LENGTH_UNIT()NAMED_UNIT(*)SI_UNIT(.MILLI.,.METRE.)) ;
#42=(NAMED_UNIT(*)PLANE_ANGLE_UNIT()SI_UNIT($,.RADIAN.)) ;
#44=(NAMED_UNIT(*)SI_UNIT($,.STERADIAN.)SOLID_ANGLE_UNIT()) ;
#46=(GEOMETRIC_REPRESENTATION_CONTEXT(3)GLOBAL_UNCERTAINTY_ASSIGNED_CONTEXT((#45))GLOBAL_UNIT_ASSIGNED_CONTEXT((#41,#42,#44))REPRESENTATION_CONTEXT(' ',' ')) ;
ENDSEC;
END-ISO-10303-21;
