ISO-10303-21;
HEADER;
FILE_DESCRIPTION(('STEP AP203'),'1');
FILE_NAME('20180607 Equerre_detecteur.stp','2018-06-07T15:47:28',(' '),(' '),'Spatial InterOp 3D',' ',' ');
FILE_SCHEMA(('CONFIG_CONTROL_DESIGN'));
ENDSEC;
DATA;
#1=DESIGN_CONTEXT('',#27,'design');
#2=APPLICATION_PROTOCOL_DEFINITION('INTERNATIONAL STANDARD','config_control_design',1994,#27);
#3=PRODUCT_CATEGORY_RELATIONSHIP('NONE','NONE',#28,#29);
#4=DATE_AND_TIME(#30,#31);
#5=DATE_TIME_ROLE('creation_date');
#6=DATE_TIME_ROLE('classification_date');
#7=PERSON_AND_ORGANIZATION_ROLE('creator');
#8=PERSON_AND_ORGANIZATION_ROLE('design_supplier');
#9=PERSON_AND_ORGANIZATION_ROLE('classification_officer');
#10=PERSON_AND_ORGANIZATION_ROLE('design_owner');
#11=APPROVAL_PERSON_ORGANIZATION(#32,#33,#34);
#12=APPROVAL_DATE_TIME(#4,#33);
#13=CC_DESIGN_APPROVAL(#33,(#35,#36,#37));
#14=CC_DESIGN_DATE_AND_TIME_ASSIGNMENT(#4,#5,(#37));
#15=CC_DESIGN_DATE_AND_TIME_ASSIGNMENT(#4,#6,(#35));
#16=CC_DESIGN_PERSON_AND_ORGANIZATION_ASSIGNMENT(#32,#10,(#38));
#17=CC_DESIGN_PERSON_AND_ORGANIZATION_ASSIGNMENT(#32,#7,(#37));
#18=CC_DESIGN_PERSON_AND_ORGANIZATION_ASSIGNMENT(#32,#7,(#36));
#19=CC_DESIGN_PERSON_AND_ORGANIZATION_ASSIGNMENT(#32,#8,(#36));
#20=CC_DESIGN_SECURITY_CLASSIFICATION(#35,(#36));
#21=CC_DESIGN_PERSON_AND_ORGANIZATION_ASSIGNMENT(#32,#9,(#35));
#22=SHAPE_DEFINITION_REPRESENTATION(#39,#40);
#23= (GEOMETRIC_REPRESENTATION_CONTEXT(3)GLOBAL_UNCERTAINTY_ASSIGNED_CONTEXT((#43))GLOBAL_UNIT_ASSIGNED_CONTEXT((#45,#46,#47))REPRESENTATION_CONTEXT('NONE','WORKSPACE'));
#27=APPLICATION_CONTEXT('CONFIGURATION CONTROLLED 3D DESIGNS OF MECHANICAL PARTS AND ASSEMBLIES');
#28=PRODUCT_CATEGORY('part','NONE');
#29=PRODUCT_RELATED_PRODUCT_CATEGORY('detail',' ',(#38));
#30=CALENDAR_DATE(2018,7,5);
#31=LOCAL_TIME(17,47,28.0,#49);
#32=PERSON_AND_ORGANIZATION(#50,#51);
#33=APPROVAL(#52,'SOLID MODEL');
#34=APPROVAL_ROLE('APPROVED');
#35=SECURITY_CLASSIFICATION('','',#53);
#36=PRODUCT_DEFINITION_FORMATION_WITH_SPECIFIED_SOURCE(' ','NONE',#38,.NOT_KNOWN.);
#37=PRODUCT_DEFINITION('NONE','NONE',#36,#1);
#38=PRODUCT('1','1','PART-1-DESC',(#54));
#39=PRODUCT_DEFINITION_SHAPE('NONE','NONE',#37);
#40=ADVANCED_BREP_SHAPE_REPRESENTATION('1',(#55,#56),#23);
#43=UNCERTAINTY_MEASURE_WITH_UNIT(LENGTH_MEASURE(1.0E-006),#45,'','');
#45= (CONVERSION_BASED_UNIT('MILLIMETRE',#59)LENGTH_UNIT()NAMED_UNIT(#62));
#46= (NAMED_UNIT(#64)PLANE_ANGLE_UNIT()SI_UNIT($,.RADIAN.));
#47= (NAMED_UNIT(#64)SOLID_ANGLE_UNIT()SI_UNIT($,.STERADIAN.));
#49=COORDINATED_UNIVERSAL_TIME_OFFSET(1,0,.AHEAD.);
#50=PERSON('','UNSPECIFIED',$,$,$,$);
#51=ORGANIZATION('UNSPECIFIED','UNSPECIFIED','UNSPECIFIED');
#52=APPROVAL_STATUS('approved');
#53=SECURITY_CLASSIFICATION_LEVEL('unclassified');
#54=MECHANICAL_CONTEXT('',#27,'mechanical');
#55=MANIFOLD_SOLID_BREP('1',#70);
#56=AXIS2_PLACEMENT_3D('',#71,#72,#73);
#59=LENGTH_MEASURE_WITH_UNIT(LENGTH_MEASURE(1.0),#74);
#62=DIMENSIONAL_EXPONENTS(1.0,0.0,0.0,0.0,0.0,0.0,0.0);
#64=DIMENSIONAL_EXPONENTS(0.0,0.0,0.0,0.0,0.0,0.0,0.0);
#70=CLOSED_SHELL('',(#75,#76,#77,#78,#79,#80,#81,#82,#83,#84,#85,#86));
#71=CARTESIAN_POINT('',(0.0,0.0,0.0));
#72=DIRECTION('',(0.0,0.0,1.0));
#73=DIRECTION('',(1.0,0.0,0.0));
#74= (NAMED_UNIT(#62)LENGTH_UNIT()SI_UNIT(.MILLI.,.METRE.));
#75=ADVANCED_FACE('',(#88,#89),#90,.F.);
#76=ADVANCED_FACE('',(#91,#92),#93,.F.);
#77=ADVANCED_FACE('',(#94,#95),#96,.F.);
#78=ADVANCED_FACE('',(#97,#98),#99,.F.);
#79=ADVANCED_FACE('',(#100,#101,#102),#103,.T.);
#80=ADVANCED_FACE('',(#104),#105,.F.);
#81=ADVANCED_FACE('',(#106),#107,.F.);
#82=ADVANCED_FACE('',(#108),#109,.F.);
#83=ADVANCED_FACE('',(#110,#111,#112),#113,.T.);
#84=ADVANCED_FACE('',(#114,#115,#116),#117,.F.);
#85=ADVANCED_FACE('',(#118,#119,#120),#121,.F.);
#86=ADVANCED_FACE('',(#122),#123,.F.);
#88=FACE_BOUND('',#124,.T.);
#89=FACE_BOUND('',#125,.T.);
#90=CYLINDRICAL_SURFACE('',#126,3.5);
#91=FACE_BOUND('',#127,.T.);
#92=FACE_BOUND('',#128,.T.);
#93=CYLINDRICAL_SURFACE('',#129,0.85);
#94=FACE_BOUND('',#130,.T.);
#95=FACE_BOUND('',#131,.T.);
#96=CYLINDRICAL_SURFACE('',#132,0.85);
#97=FACE_BOUND('',#133,.T.);
#98=FACE_BOUND('',#134,.T.);
#99=CYLINDRICAL_SURFACE('',#135,3.5);
#100=FACE_BOUND('',#136,.T.);
#101=FACE_BOUND('',#137,.T.);
#102=FACE_OUTER_BOUND('',#138,.T.);
#103=PLANE('',#139);
#104=FACE_OUTER_BOUND('',#140,.T.);
#105=PLANE('',#141);
#106=FACE_OUTER_BOUND('',#142,.T.);
#107=PLANE('',#143);
#108=FACE_OUTER_BOUND('',#144,.T.);
#109=PLANE('',#145);
#110=FACE_BOUND('',#146,.T.);
#111=FACE_BOUND('',#147,.T.);
#112=FACE_OUTER_BOUND('',#148,.T.);
#113=PLANE('',#149);
#114=FACE_BOUND('',#150,.T.);
#115=FACE_BOUND('',#151,.T.);
#116=FACE_OUTER_BOUND('',#152,.T.);
#117=PLANE('',#153);
#118=FACE_BOUND('',#154,.T.);
#119=FACE_BOUND('',#155,.T.);
#120=FACE_OUTER_BOUND('',#156,.T.);
#121=PLANE('',#157);
#122=FACE_OUTER_BOUND('',#158,.T.);
#123=PLANE('',#159);
#124=EDGE_LOOP('',(#160));
#125=EDGE_LOOP('',(#161));
#126=AXIS2_PLACEMENT_3D('',#162,#163,#164);
#127=EDGE_LOOP('',(#165));
#128=EDGE_LOOP('',(#166));
#129=AXIS2_PLACEMENT_3D('',#167,#168,#169);
#130=EDGE_LOOP('',(#170));
#131=EDGE_LOOP('',(#171));
#132=AXIS2_PLACEMENT_3D('',#172,#173,#174);
#133=EDGE_LOOP('',(#175));
#134=EDGE_LOOP('',(#176));
#135=AXIS2_PLACEMENT_3D('',#177,#178,#179);
#136=EDGE_LOOP('',(#180));
#137=EDGE_LOOP('',(#181));
#138=EDGE_LOOP('',(#182,#183,#184,#185));
#139=AXIS2_PLACEMENT_3D('',#186,#187,#188);
#140=EDGE_LOOP('',(#189,#190,#191,#192));
#141=AXIS2_PLACEMENT_3D('',#193,#194,#195);
#142=EDGE_LOOP('',(#196,#197,#198,#199,#200,#201));
#143=AXIS2_PLACEMENT_3D('',#202,#203,#204);
#144=EDGE_LOOP('',(#205,#206,#207,#208,#209,#210));
#145=AXIS2_PLACEMENT_3D('',#211,#212,#213);
#146=EDGE_LOOP('',(#214));
#147=EDGE_LOOP('',(#215));
#148=EDGE_LOOP('',(#216,#217,#218,#219));
#149=AXIS2_PLACEMENT_3D('',#220,#221,#222);
#150=EDGE_LOOP('',(#223));
#151=EDGE_LOOP('',(#224));
#152=EDGE_LOOP('',(#225,#226,#227,#228));
#153=AXIS2_PLACEMENT_3D('',#229,#230,#231);
#154=EDGE_LOOP('',(#232));
#155=EDGE_LOOP('',(#233));
#156=EDGE_LOOP('',(#234,#235,#236,#237));
#157=AXIS2_PLACEMENT_3D('',#238,#239,#240);
#158=EDGE_LOOP('',(#241,#242,#243,#244));
#159=AXIS2_PLACEMENT_3D('',#245,#246,#247);
#160=ORIENTED_EDGE('',*,*,#248,.F.);
#161=ORIENTED_EDGE('',*,*,#249,.F.);
#162=CARTESIAN_POINT('',(-12.5,-4.5,4.0));
#163=DIRECTION('',(0.0,0.0,-1.0));
#164=DIRECTION('',(0.0,1.0,0.0));
#165=ORIENTED_EDGE('',*,*,#250,.F.);
#166=ORIENTED_EDGE('',*,*,#251,.F.);
#167=CARTESIAN_POINT('',(-12.0,-22.0,-7.34));
#168=DIRECTION('',(-0.0,1.0,0.0));
#169=DIRECTION('',(1.0,0.0,0.0));
#170=ORIENTED_EDGE('',*,*,#252,.F.);
#171=ORIENTED_EDGE('',*,*,#253,.F.);
#172=CARTESIAN_POINT('',(12.0,-22.0,-7.34));
#173=DIRECTION('',(-0.0,1.0,0.0));
#174=DIRECTION('',(1.0,0.0,0.0));
#175=ORIENTED_EDGE('',*,*,#254,.F.);
#176=ORIENTED_EDGE('',*,*,#255,.F.);
#177=CARTESIAN_POINT('',(12.5,-4.5,4.0));
#178=DIRECTION('',(0.0,0.0,-1.0));
#179=DIRECTION('',(0.0,1.0,0.0));
#180=ORIENTED_EDGE('',*,*,#251,.T.);
#181=ORIENTED_EDGE('',*,*,#253,.T.);
#182=ORIENTED_EDGE('',*,*,#256,.F.);
#183=ORIENTED_EDGE('',*,*,#257,.T.);
#184=ORIENTED_EDGE('',*,*,#258,.T.);
#185=ORIENTED_EDGE('',*,*,#259,.T.);
#186=CARTESIAN_POINT('',(0.0,-20.0,-13.0));
#187=DIRECTION('',(-0.0,1.0,0.0));
#188=DIRECTION('',(1.0,0.0,0.0));
#189=ORIENTED_EDGE('',*,*,#260,.T.);
#190=ORIENTED_EDGE('',*,*,#261,.F.);
#191=ORIENTED_EDGE('',*,*,#262,.F.);
#192=ORIENTED_EDGE('',*,*,#258,.F.);
#193=CARTESIAN_POINT('',(0.0,-22.5,-33.0));
#194=DIRECTION('',(0.0,0.0,1.0));
#195=DIRECTION('',(0.0,-1.0,0.0));
#196=ORIENTED_EDGE('',*,*,#263,.F.);
#197=ORIENTED_EDGE('',*,*,#259,.F.);
#198=ORIENTED_EDGE('',*,*,#262,.T.);
#199=ORIENTED_EDGE('',*,*,#264,.F.);
#200=ORIENTED_EDGE('',*,*,#265,.F.);
#201=ORIENTED_EDGE('',*,*,#266,.T.);
#202=CARTESIAN_POINT('',(-25.0,-10.0,5.5));
#203=DIRECTION('',(1.0,0.0,0.0));
#204=DIRECTION('',(0.0,0.0,-1.0));
#205=ORIENTED_EDGE('',*,*,#267,.T.);
#206=ORIENTED_EDGE('',*,*,#260,.F.);
#207=ORIENTED_EDGE('',*,*,#257,.F.);
#208=ORIENTED_EDGE('',*,*,#268,.F.);
#209=ORIENTED_EDGE('',*,*,#269,.F.);
#210=ORIENTED_EDGE('',*,*,#270,.F.);
#211=CARTESIAN_POINT('',(25.0,-10.0,5.5));
#212=DIRECTION('',(-1.0,0.0,0.0));
#213=DIRECTION('',(0.0,0.0,1.0));
#214=ORIENTED_EDGE('',*,*,#249,.T.);
#215=ORIENTED_EDGE('',*,*,#255,.T.);
#216=ORIENTED_EDGE('',*,*,#270,.T.);
#217=ORIENTED_EDGE('',*,*,#271,.T.);
#218=ORIENTED_EDGE('',*,*,#265,.T.);
#219=ORIENTED_EDGE('',*,*,#272,.T.);
#220=CARTESIAN_POINT('',(0.0,-10.0,8.0));
#221=DIRECTION('',(0.0,0.0,1.0));
#222=DIRECTION('',(1.0,0.0,0.0));
#223=ORIENTED_EDGE('',*,*,#248,.T.);
#224=ORIENTED_EDGE('',*,*,#254,.T.);
#225=ORIENTED_EDGE('',*,*,#256,.T.);
#226=ORIENTED_EDGE('',*,*,#263,.T.);
#227=ORIENTED_EDGE('',*,*,#273,.T.);
#228=ORIENTED_EDGE('',*,*,#268,.T.);
#229=CARTESIAN_POINT('',(0.0,-10.0,3.0));
#230=DIRECTION('',(0.0,0.0,1.0));
#231=DIRECTION('',(1.0,0.0,0.0));
#232=ORIENTED_EDGE('',*,*,#250,.T.);
#233=ORIENTED_EDGE('',*,*,#252,.T.);
#234=ORIENTED_EDGE('',*,*,#264,.T.);
#235=ORIENTED_EDGE('',*,*,#261,.T.);
#236=ORIENTED_EDGE('',*,*,#267,.F.);
#237=ORIENTED_EDGE('',*,*,#272,.F.);
#238=CARTESIAN_POINT('',(0.0,-25.0,5.5));
#239=DIRECTION('',(0.0,1.0,0.0));
#240=DIRECTION('',(0.0,0.0,1.0));
#241=ORIENTED_EDGE('',*,*,#269,.T.);
#242=ORIENTED_EDGE('',*,*,#273,.F.);
#243=ORIENTED_EDGE('',*,*,#266,.F.);
#244=ORIENTED_EDGE('',*,*,#271,.F.);
#245=CARTESIAN_POINT('',(0.0,5.0,5.5));
#246=DIRECTION('',(0.0,-1.0,0.0));
#247=DIRECTION('',(0.0,0.0,-1.0));
#248=EDGE_CURVE('',#274,#274,#275,.T.);
#249=EDGE_CURVE('',#276,#276,#277,.T.);
#250=EDGE_CURVE('',#278,#278,#279,.T.);
#251=EDGE_CURVE('',#280,#280,#281,.T.);
#252=EDGE_CURVE('',#282,#282,#283,.T.);
#253=EDGE_CURVE('',#284,#284,#285,.T.);
#254=EDGE_CURVE('',#286,#286,#287,.T.);
#255=EDGE_CURVE('',#288,#288,#289,.T.);
#256=EDGE_CURVE('',#290,#291,#292,.T.);
#257=EDGE_CURVE('',#290,#293,#294,.T.);
#258=EDGE_CURVE('',#293,#295,#296,.T.);
#259=EDGE_CURVE('',#295,#291,#297,.T.);
#260=EDGE_CURVE('',#293,#298,#299,.T.);
#261=EDGE_CURVE('',#300,#298,#301,.T.);
#262=EDGE_CURVE('',#295,#300,#302,.T.);
#263=EDGE_CURVE('',#291,#303,#304,.T.);
#264=EDGE_CURVE('',#305,#300,#306,.T.);
#265=EDGE_CURVE('',#307,#305,#308,.T.);
#266=EDGE_CURVE('',#307,#303,#309,.T.);
#267=EDGE_CURVE('',#310,#298,#311,.T.);
#268=EDGE_CURVE('',#312,#290,#313,.T.);
#269=EDGE_CURVE('',#314,#312,#315,.T.);
#270=EDGE_CURVE('',#310,#314,#316,.T.);
#271=EDGE_CURVE('',#314,#307,#317,.T.);
#272=EDGE_CURVE('',#305,#310,#318,.T.);
#273=EDGE_CURVE('',#303,#312,#319,.T.);
#274=VERTEX_POINT('',#320);
#275=CIRCLE('',#321,3.5);
#276=VERTEX_POINT('',#322);
#277=CIRCLE('',#323,3.5);
#278=VERTEX_POINT('',#324);
#279=CIRCLE('',#325,0.85);
#280=VERTEX_POINT('',#326);
#281=CIRCLE('',#327,0.85);
#282=VERTEX_POINT('',#328);
#283=CIRCLE('',#329,0.85);
#284=VERTEX_POINT('',#330);
#285=CIRCLE('',#331,0.85);
#286=VERTEX_POINT('',#332);
#287=CIRCLE('',#333,3.5);
#288=VERTEX_POINT('',#334);
#289=CIRCLE('',#335,3.5);
#290=VERTEX_POINT('',#336);
#291=VERTEX_POINT('',#337);
#292=LINE('',#338,#339);
#293=VERTEX_POINT('',#340);
#294=LINE('',#341,#342);
#295=VERTEX_POINT('',#343);
#296=LINE('',#344,#345);
#297=LINE('',#346,#347);
#298=VERTEX_POINT('',#348);
#299=LINE('',#349,#350);
#300=VERTEX_POINT('',#351);
#301=LINE('',#352,#353);
#302=LINE('',#354,#355);
#303=VERTEX_POINT('',#356);
#304=LINE('',#357,#358);
#305=VERTEX_POINT('',#359);
#306=LINE('',#360,#361);
#307=VERTEX_POINT('',#362);
#308=LINE('',#363,#364);
#309=LINE('',#365,#366);
#310=VERTEX_POINT('',#367);
#311=LINE('',#368,#369);
#312=VERTEX_POINT('',#370);
#313=LINE('',#371,#372);
#314=VERTEX_POINT('',#373);
#315=LINE('',#374,#375);
#316=LINE('',#376,#377);
#317=LINE('',#378,#379);
#318=LINE('',#380,#381);
#319=LINE('',#382,#383);
#320=CARTESIAN_POINT('',(-12.5,-8.0,3.0));
#321=AXIS2_PLACEMENT_3D('',#384,#385,#386);
#322=CARTESIAN_POINT('',(-12.5,-8.0,8.0));
#323=AXIS2_PLACEMENT_3D('',#387,#388,#389);
#324=CARTESIAN_POINT('',(-12.85,-25.0,-7.34));
#325=AXIS2_PLACEMENT_3D('',#390,#391,#392);
#326=CARTESIAN_POINT('',(-12.85,-20.0,-7.34));
#327=AXIS2_PLACEMENT_3D('',#393,#394,#395);
#328=CARTESIAN_POINT('',(11.15,-25.0,-7.34));
#329=AXIS2_PLACEMENT_3D('',#396,#397,#398);
#330=CARTESIAN_POINT('',(11.15,-20.0,-7.34));
#331=AXIS2_PLACEMENT_3D('',#399,#400,#401);
#332=CARTESIAN_POINT('',(12.5,-8.0,3.0));
#333=AXIS2_PLACEMENT_3D('',#402,#403,#404);
#334=CARTESIAN_POINT('',(12.5,-8.0,8.0));
#335=AXIS2_PLACEMENT_3D('',#405,#406,#407);
#336=CARTESIAN_POINT('',(25.0,-20.0,3.0));
#337=CARTESIAN_POINT('',(-25.0,-20.0,3.0));
#338=CARTESIAN_POINT('',(0.0,-20.0,3.0));
#339=VECTOR('',#408,1.0);
#340=CARTESIAN_POINT('',(25.0,-20.0,-33.0));
#341=CARTESIAN_POINT('',(25.0,-20.0,-13.0));
#342=VECTOR('',#409,1.0);
#343=CARTESIAN_POINT('',(-25.0,-20.0,-33.0));
#344=CARTESIAN_POINT('',(0.0,-20.0,-33.0));
#345=VECTOR('',#410,1.0);
#346=CARTESIAN_POINT('',(-25.0,-20.0,-13.0));
#347=VECTOR('',#411,1.0);
#348=CARTESIAN_POINT('',(25.0,-25.0,-33.0));
#349=CARTESIAN_POINT('',(25.0,-22.5,-33.0));
#350=VECTOR('',#412,1.0);
#351=CARTESIAN_POINT('',(-25.0,-25.0,-33.0));
#352=CARTESIAN_POINT('',(0.0,-25.0,-33.0));
#353=VECTOR('',#413,1.0);
#354=CARTESIAN_POINT('',(-25.0,-22.5,-33.0));
#355=VECTOR('',#414,1.0);
#356=CARTESIAN_POINT('',(-25.0,5.0,3.0));
#357=CARTESIAN_POINT('',(-25.0,-10.0,3.0));
#358=VECTOR('',#415,1.0);
#359=CARTESIAN_POINT('',(-25.0,-25.0,8.0));
#360=CARTESIAN_POINT('',(-25.0,-25.0,-13.0));
#361=VECTOR('',#416,1.0);
#362=CARTESIAN_POINT('',(-25.0,5.0,8.0));
#363=CARTESIAN_POINT('',(-25.0,-10.0,8.0));
#364=VECTOR('',#417,1.0);
#365=CARTESIAN_POINT('',(-25.0,5.0,5.5));
#366=VECTOR('',#418,1.0);
#367=CARTESIAN_POINT('',(25.0,-25.0,8.0));
#368=CARTESIAN_POINT('',(25.0,-25.0,5.5));
#369=VECTOR('',#419,1.0);
#370=CARTESIAN_POINT('',(25.0,5.0,3.0));
#371=CARTESIAN_POINT('',(25.0,-10.0,3.0));
#372=VECTOR('',#420,1.0);
#373=CARTESIAN_POINT('',(25.0,5.0,8.0));
#374=CARTESIAN_POINT('',(25.0,5.0,5.5));
#375=VECTOR('',#421,1.0);
#376=CARTESIAN_POINT('',(25.0,-10.0,8.0));
#377=VECTOR('',#422,1.0);
#378=CARTESIAN_POINT('',(0.0,5.0,8.0));
#379=VECTOR('',#423,1.0);
#380=CARTESIAN_POINT('',(0.0,-25.0,8.0));
#381=VECTOR('',#424,1.0);
#382=CARTESIAN_POINT('',(0.0,5.0,3.0));
#383=VECTOR('',#425,1.0);
#384=CARTESIAN_POINT('',(-12.5,-4.5,3.0));
#385=DIRECTION('',(0.0,-0.0,1.0));
#386=DIRECTION('',(0.0,1.0,0.0));
#387=CARTESIAN_POINT('',(-12.5,-4.5,8.0));
#388=DIRECTION('',(0.0,0.0,-1.0));
#389=DIRECTION('',(0.0,1.0,0.0));
#390=CARTESIAN_POINT('',(-12.0,-25.0,-7.34));
#391=DIRECTION('',(-0.0,1.0,0.0));
#392=DIRECTION('',(1.0,0.0,0.0));
#393=CARTESIAN_POINT('',(-12.0,-20.0,-7.34));
#394=DIRECTION('',(0.0,-1.0,0.0));
#395=DIRECTION('',(1.0,0.0,0.0));
#396=CARTESIAN_POINT('',(12.0,-25.0,-7.34));
#397=DIRECTION('',(-0.0,1.0,0.0));
#398=DIRECTION('',(1.0,0.0,0.0));
#399=CARTESIAN_POINT('',(12.0,-20.0,-7.34));
#400=DIRECTION('',(0.0,-1.0,0.0));
#401=DIRECTION('',(1.0,0.0,0.0));
#402=CARTESIAN_POINT('',(12.5,-4.5,3.0));
#403=DIRECTION('',(0.0,-0.0,1.0));
#404=DIRECTION('',(0.0,1.0,0.0));
#405=CARTESIAN_POINT('',(12.5,-4.5,8.0));
#406=DIRECTION('',(0.0,0.0,-1.0));
#407=DIRECTION('',(0.0,1.0,0.0));
#408=DIRECTION('',(-1.0,0.0,0.0));
#409=DIRECTION('',(0.0,0.0,-1.0));
#410=DIRECTION('',(-1.0,0.0,0.0));
#411=DIRECTION('',(0.0,0.0,1.0));
#412=DIRECTION('',(0.0,-1.0,0.0));
#413=DIRECTION('',(1.0,0.0,0.0));
#414=DIRECTION('',(0.0,-1.0,0.0));
#415=DIRECTION('',(0.0,1.0,0.0));
#416=DIRECTION('',(0.0,0.0,-1.0));
#417=DIRECTION('',(0.0,-1.0,0.0));
#418=DIRECTION('',(0.0,0.0,-1.0));
#419=DIRECTION('',(0.0,0.0,-1.0));
#420=DIRECTION('',(0.0,-1.0,0.0));
#421=DIRECTION('',(0.0,0.0,-1.0));
#422=DIRECTION('',(0.0,1.0,0.0));
#423=DIRECTION('',(-1.0,0.0,0.0));
#424=DIRECTION('',(1.0,0.0,0.0));
#425=DIRECTION('',(1.0,0.0,0.0));
ENDSEC;
END-ISO-10303-21;
