ISO-10303-21;
HEADER;
FILE_DESCRIPTION(('STEP AP203'),'1');
FILE_NAME('20180607 Equerre_fixation_bloc_lentilles.stp','2018-06-07T09:46:43',(' '),(' '),'Spatial InterOp 3D',' ',' ');
FILE_SCHEMA(('CONFIG_CONTROL_DESIGN'));
ENDSEC;
DATA;
#1=DESIGN_CONTEXT('',#27,'design');
#2=APPLICATION_PROTOCOL_DEFINITION('INTERNATIONAL STANDARD','config_control_design',1994,#27);
#3=PRODUCT_CATEGORY_RELATIONSHIP('NONE','NONE',#28,#29);
#4=DATE_AND_TIME(#30,#31);
#5=DATE_TIME_ROLE('creation_date');
#6=DATE_TIME_ROLE('classification_date');
#7=PERSON_AND_ORGANIZATION_ROLE('creator');
#8=PERSON_AND_ORGANIZATION_ROLE('design_supplier');
#9=PERSON_AND_ORGANIZATION_ROLE('classification_officer');
#10=PERSON_AND_ORGANIZATION_ROLE('design_owner');
#11=APPROVAL_PERSON_ORGANIZATION(#32,#33,#34);
#12=APPROVAL_DATE_TIME(#4,#33);
#13=CC_DESIGN_APPROVAL(#33,(#35,#36,#37));
#14=CC_DESIGN_DATE_AND_TIME_ASSIGNMENT(#4,#5,(#37));
#15=CC_DESIGN_DATE_AND_TIME_ASSIGNMENT(#4,#6,(#35));
#16=CC_DESIGN_PERSON_AND_ORGANIZATION_ASSIGNMENT(#32,#10,(#38));
#17=CC_DESIGN_PERSON_AND_ORGANIZATION_ASSIGNMENT(#32,#7,(#37));
#18=CC_DESIGN_PERSON_AND_ORGANIZATION_ASSIGNMENT(#32,#7,(#36));
#19=CC_DESIGN_PERSON_AND_ORGANIZATION_ASSIGNMENT(#32,#8,(#36));
#20=CC_DESIGN_SECURITY_CLASSIFICATION(#35,(#36));
#21=CC_DESIGN_PERSON_AND_ORGANIZATION_ASSIGNMENT(#32,#9,(#35));
#22=SHAPE_DEFINITION_REPRESENTATION(#39,#40);
#23= (GEOMETRIC_REPRESENTATION_CONTEXT(3)GLOBAL_UNCERTAINTY_ASSIGNED_CONTEXT((#43))GLOBAL_UNIT_ASSIGNED_CONTEXT((#45,#46,#47))REPRESENTATION_CONTEXT('NONE','WORKSPACE'));
#27=APPLICATION_CONTEXT('CONFIGURATION CONTROLLED 3D DESIGNS OF MECHANICAL PARTS AND ASSEMBLIES');
#28=PRODUCT_CATEGORY('part','NONE');
#29=PRODUCT_RELATED_PRODUCT_CATEGORY('detail',' ',(#38));
#30=CALENDAR_DATE(2018,7,5);
#31=LOCAL_TIME(11,46,43.0,#49);
#32=PERSON_AND_ORGANIZATION(#50,#51);
#33=APPROVAL(#52,'SOLID MODEL');
#34=APPROVAL_ROLE('APPROVED');
#35=SECURITY_CLASSIFICATION('','',#53);
#36=PRODUCT_DEFINITION_FORMATION_WITH_SPECIFIED_SOURCE(' ','NONE',#38,.NOT_KNOWN.);
#37=PRODUCT_DEFINITION('NONE','NONE',#36,#1);
#38=PRODUCT('1','1','PART-1-DESC',(#54));
#39=PRODUCT_DEFINITION_SHAPE('NONE','NONE',#37);
#40=ADVANCED_BREP_SHAPE_REPRESENTATION('1',(#55,#56),#23);
#43=UNCERTAINTY_MEASURE_WITH_UNIT(LENGTH_MEASURE(1.0E-006),#45,'','');
#45= (CONVERSION_BASED_UNIT('MILLIMETRE',#59)LENGTH_UNIT()NAMED_UNIT(#62));
#46= (NAMED_UNIT(#64)PLANE_ANGLE_UNIT()SI_UNIT($,.RADIAN.));
#47= (NAMED_UNIT(#64)SOLID_ANGLE_UNIT()SI_UNIT($,.STERADIAN.));
#49=COORDINATED_UNIVERSAL_TIME_OFFSET(1,0,.AHEAD.);
#50=PERSON('','UNSPECIFIED',$,$,$,$);
#51=ORGANIZATION('UNSPECIFIED','UNSPECIFIED','UNSPECIFIED');
#52=APPROVAL_STATUS('approved');
#53=SECURITY_CLASSIFICATION_LEVEL('unclassified');
#54=MECHANICAL_CONTEXT('',#27,'mechanical');
#55=MANIFOLD_SOLID_BREP('1',#70);
#56=AXIS2_PLACEMENT_3D('',#71,#72,#73);
#59=LENGTH_MEASURE_WITH_UNIT(LENGTH_MEASURE(1.0),#74);
#62=DIMENSIONAL_EXPONENTS(1.0,0.0,0.0,0.0,0.0,0.0,0.0);
#64=DIMENSIONAL_EXPONENTS(0.0,0.0,0.0,0.0,0.0,0.0,0.0);
#70=CLOSED_SHELL('',(#75,#76,#77,#78,#79,#80,#81,#82,#83,#84,#85,#86,#87,#88,#89,#90,#91,#92,#93));
#71=CARTESIAN_POINT('',(0.0,0.0,0.0));
#72=DIRECTION('',(0.0,0.0,1.0));
#73=DIRECTION('',(1.0,0.0,0.0));
#74= (NAMED_UNIT(#62)LENGTH_UNIT()SI_UNIT(.MILLI.,.METRE.));
#75=ADVANCED_FACE('',(#95,#96),#97,.F.);
#76=ADVANCED_FACE('',(#98,#99),#100,.F.);
#77=ADVANCED_FACE('',(#101,#102),#103,.F.);
#78=ADVANCED_FACE('',(#104,#105),#106,.F.);
#79=ADVANCED_FACE('',(#107,#108),#109,.F.);
#80=ADVANCED_FACE('',(#110,#111),#112,.F.);
#81=ADVANCED_FACE('',(#113,#114),#115,.F.);
#82=ADVANCED_FACE('',(#116,#117),#118,.F.);
#83=ADVANCED_FACE('',(#119,#120),#121,.F.);
#84=ADVANCED_FACE('',(#122),#123,.T.);
#85=ADVANCED_FACE('',(#124),#125,.F.);
#86=ADVANCED_FACE('',(#126,#127,#128),#129,.T.);
#87=ADVANCED_FACE('',(#130),#131,.F.);
#88=ADVANCED_FACE('',(#132,#133,#134,#135),#136,.F.);
#89=ADVANCED_FACE('',(#137),#138,.F.);
#90=ADVANCED_FACE('',(#139,#140,#141,#142),#143,.T.);
#91=ADVANCED_FACE('',(#144),#145,.T.);
#92=ADVANCED_FACE('',(#146,#147,#148),#149,.F.);
#93=ADVANCED_FACE('',(#150),#151,.F.);
#95=FACE_BOUND('',#152,.T.);
#96=FACE_BOUND('',#153,.T.);
#97=CYLINDRICAL_SURFACE('',#154,2.0);
#98=FACE_BOUND('',#155,.T.);
#99=FACE_BOUND('',#156,.T.);
#100=CYLINDRICAL_SURFACE('',#157,2.0);
#101=FACE_BOUND('',#158,.T.);
#102=FACE_BOUND('',#159,.T.);
#103=CYLINDRICAL_SURFACE('',#160,12.0);
#104=FACE_OUTER_BOUND('',#161,.T.);
#105=FACE_BOUND('',#162,.T.);
#106=PLANE('',#163);
#107=FACE_BOUND('',#164,.T.);
#108=FACE_BOUND('',#165,.T.);
#109=CYLINDRICAL_SURFACE('',#166,6.0);
#110=FACE_BOUND('',#167,.T.);
#111=FACE_BOUND('',#168,.T.);
#112=CYLINDRICAL_SURFACE('',#169,3.5);
#113=FACE_OUTER_BOUND('',#170,.T.);
#114=FACE_BOUND('',#171,.T.);
#115=PLANE('',#172);
#116=FACE_BOUND('',#173,.T.);
#117=FACE_BOUND('',#174,.T.);
#118=CYLINDRICAL_SURFACE('',#175,6.0);
#119=FACE_BOUND('',#176,.T.);
#120=FACE_BOUND('',#177,.T.);
#121=CYLINDRICAL_SURFACE('',#178,3.5);
#122=FACE_OUTER_BOUND('',#179,.T.);
#123=PLANE('',#180);
#124=FACE_OUTER_BOUND('',#181,.T.);
#125=PLANE('',#182);
#126=FACE_BOUND('',#183,.T.);
#127=FACE_BOUND('',#184,.T.);
#128=FACE_OUTER_BOUND('',#185,.T.);
#129=PLANE('',#186);
#130=FACE_OUTER_BOUND('',#187,.T.);
#131=PLANE('',#188);
#132=FACE_BOUND('',#189,.T.);
#133=FACE_BOUND('',#190,.T.);
#134=FACE_BOUND('',#191,.T.);
#135=FACE_OUTER_BOUND('',#192,.T.);
#136=PLANE('',#193);
#137=FACE_OUTER_BOUND('',#194,.T.);
#138=PLANE('',#195);
#139=FACE_BOUND('',#196,.T.);
#140=FACE_BOUND('',#197,.T.);
#141=FACE_BOUND('',#198,.T.);
#142=FACE_OUTER_BOUND('',#199,.T.);
#143=PLANE('',#200);
#144=FACE_OUTER_BOUND('',#201,.T.);
#145=PLANE('',#202);
#146=FACE_BOUND('',#203,.T.);
#147=FACE_BOUND('',#204,.T.);
#148=FACE_OUTER_BOUND('',#205,.T.);
#149=PLANE('',#206);
#150=FACE_OUTER_BOUND('',#207,.T.);
#151=PLANE('',#208);
#152=EDGE_LOOP('',(#209));
#153=EDGE_LOOP('',(#210));
#154=AXIS2_PLACEMENT_3D('',#211,#212,#213);
#155=EDGE_LOOP('',(#214));
#156=EDGE_LOOP('',(#215));
#157=AXIS2_PLACEMENT_3D('',#216,#217,#218);
#158=EDGE_LOOP('',(#219));
#159=EDGE_LOOP('',(#220));
#160=AXIS2_PLACEMENT_3D('',#221,#222,#223);
#161=EDGE_LOOP('',(#224));
#162=EDGE_LOOP('',(#225));
#163=AXIS2_PLACEMENT_3D('',#226,#227,#228);
#164=EDGE_LOOP('',(#229));
#165=EDGE_LOOP('',(#230));
#166=AXIS2_PLACEMENT_3D('',#231,#232,#233);
#167=EDGE_LOOP('',(#234));
#168=EDGE_LOOP('',(#235));
#169=AXIS2_PLACEMENT_3D('',#236,#237,#238);
#170=EDGE_LOOP('',(#239));
#171=EDGE_LOOP('',(#240));
#172=AXIS2_PLACEMENT_3D('',#241,#242,#243);
#173=EDGE_LOOP('',(#244));
#174=EDGE_LOOP('',(#245));
#175=AXIS2_PLACEMENT_3D('',#246,#247,#248);
#176=EDGE_LOOP('',(#249));
#177=EDGE_LOOP('',(#250));
#178=AXIS2_PLACEMENT_3D('',#251,#252,#253);
#179=EDGE_LOOP('',(#254,#255,#256,#257,#258,#259));
#180=AXIS2_PLACEMENT_3D('',#260,#261,#262);
#181=EDGE_LOOP('',(#263,#264,#265,#266));
#182=AXIS2_PLACEMENT_3D('',#267,#268,#269);
#183=EDGE_LOOP('',(#270));
#184=EDGE_LOOP('',(#271));
#185=EDGE_LOOP('',(#272,#273,#274,#275));
#186=AXIS2_PLACEMENT_3D('',#276,#277,#278);
#187=EDGE_LOOP('',(#279,#280,#281,#282));
#188=AXIS2_PLACEMENT_3D('',#283,#284,#285);
#189=EDGE_LOOP('',(#286));
#190=EDGE_LOOP('',(#287));
#191=EDGE_LOOP('',(#288));
#192=EDGE_LOOP('',(#289,#290,#291,#292,#293,#294));
#193=AXIS2_PLACEMENT_3D('',#295,#296,#297);
#194=EDGE_LOOP('',(#298,#299,#300,#301));
#195=AXIS2_PLACEMENT_3D('',#302,#303,#304);
#196=EDGE_LOOP('',(#305));
#197=EDGE_LOOP('',(#306));
#198=EDGE_LOOP('',(#307));
#199=EDGE_LOOP('',(#308,#309,#310,#311,#312,#313));
#200=AXIS2_PLACEMENT_3D('',#314,#315,#316);
#201=EDGE_LOOP('',(#317,#318,#319,#320));
#202=AXIS2_PLACEMENT_3D('',#321,#322,#323);
#203=EDGE_LOOP('',(#324));
#204=EDGE_LOOP('',(#325));
#205=EDGE_LOOP('',(#326,#327,#328,#329));
#206=AXIS2_PLACEMENT_3D('',#330,#331,#332);
#207=EDGE_LOOP('',(#333,#334,#335,#336,#337,#338));
#208=AXIS2_PLACEMENT_3D('',#339,#340,#341);
#209=ORIENTED_EDGE('',*,*,#342,.F.);
#210=ORIENTED_EDGE('',*,*,#343,.F.);
#211=CARTESIAN_POINT('',(-2.5,-20.0,29.15));
#212=DIRECTION('',(0.0,1.0,0.0));
#213=DIRECTION('',(0.0,0.0,-1.0));
#214=ORIENTED_EDGE('',*,*,#344,.F.);
#215=ORIENTED_EDGE('',*,*,#345,.F.);
#216=CARTESIAN_POINT('',(-57.5,-20.0,29.15));
#217=DIRECTION('',(0.0,1.0,0.0));
#218=DIRECTION('',(0.0,0.0,-1.0));
#219=ORIENTED_EDGE('',*,*,#346,.F.);
#220=ORIENTED_EDGE('',*,*,#347,.F.);
#221=CARTESIAN_POINT('',(45.0,-20.0,50.0));
#222=DIRECTION('',(0.0,1.0,0.0));
#223=DIRECTION('',(0.0,0.0,-1.0));
#224=ORIENTED_EDGE('',*,*,#348,.F.);
#225=ORIENTED_EDGE('',*,*,#349,.F.);
#226=CARTESIAN_POINT('',(-5.0,3.0,5.0));
#227=DIRECTION('',(0.0,0.0,-1.0));
#228=DIRECTION('',(1.0,0.0,0.0));
#229=ORIENTED_EDGE('',*,*,#350,.F.);
#230=ORIENTED_EDGE('',*,*,#348,.T.);
#231=CARTESIAN_POINT('',(-5.0,3.0,7.5));
#232=DIRECTION('',(0.0,0.0,-1.0));
#233=DIRECTION('',(1.0,0.0,0.0));
#234=ORIENTED_EDGE('',*,*,#351,.F.);
#235=ORIENTED_EDGE('',*,*,#349,.T.);
#236=CARTESIAN_POINT('',(-5.0,3.0,-2.5));
#237=DIRECTION('',(0.0,0.0,-1.0));
#238=DIRECTION('',(1.0,0.0,0.0));
#239=ORIENTED_EDGE('',*,*,#352,.F.);
#240=ORIENTED_EDGE('',*,*,#353,.F.);
#241=CARTESIAN_POINT('',(-55.0,3.0,5.0));
#242=DIRECTION('',(0.0,0.0,-1.0));
#243=DIRECTION('',(1.0,0.0,0.0));
#244=ORIENTED_EDGE('',*,*,#354,.F.);
#245=ORIENTED_EDGE('',*,*,#352,.T.);
#246=CARTESIAN_POINT('',(-55.0,3.0,7.5));
#247=DIRECTION('',(0.0,0.0,-1.0));
#248=DIRECTION('',(1.0,0.0,0.0));
#249=ORIENTED_EDGE('',*,*,#355,.F.);
#250=ORIENTED_EDGE('',*,*,#353,.T.);
#251=CARTESIAN_POINT('',(-55.0,3.0,-2.5));
#252=DIRECTION('',(0.0,0.0,-1.0));
#253=DIRECTION('',(1.0,0.0,0.0));
#254=ORIENTED_EDGE('',*,*,#356,.F.);
#255=ORIENTED_EDGE('',*,*,#357,.T.);
#256=ORIENTED_EDGE('',*,*,#358,.F.);
#257=ORIENTED_EDGE('',*,*,#359,.F.);
#258=ORIENTED_EDGE('',*,*,#360,.F.);
#259=ORIENTED_EDGE('',*,*,#361,.F.);
#260=CARTESIAN_POINT('',(15.0,5.0,10.0));
#261=DIRECTION('',(1.0,0.0,0.0));
#262=DIRECTION('',(0.0,0.0,-1.0));
#263=ORIENTED_EDGE('',*,*,#362,.F.);
#264=ORIENTED_EDGE('',*,*,#363,.F.);
#265=ORIENTED_EDGE('',*,*,#364,.F.);
#266=ORIENTED_EDGE('',*,*,#357,.F.);
#267=CARTESIAN_POINT('',(45.0,5.0,20.0));
#268=DIRECTION('',(0.0,0.0,1.0));
#269=DIRECTION('',(1.0,0.0,0.0));
#270=ORIENTED_EDGE('',*,*,#350,.T.);
#271=ORIENTED_EDGE('',*,*,#354,.T.);
#272=ORIENTED_EDGE('',*,*,#361,.T.);
#273=ORIENTED_EDGE('',*,*,#365,.F.);
#274=ORIENTED_EDGE('',*,*,#366,.F.);
#275=ORIENTED_EDGE('',*,*,#367,.F.);
#276=CARTESIAN_POINT('',(0.0,10.0,10.0));
#277=DIRECTION('',(0.0,0.0,1.0));
#278=DIRECTION('',(1.0,0.0,0.0));
#279=ORIENTED_EDGE('',*,*,#360,.T.);
#280=ORIENTED_EDGE('',*,*,#368,.F.);
#281=ORIENTED_EDGE('',*,*,#369,.F.);
#282=ORIENTED_EDGE('',*,*,#365,.T.);
#283=CARTESIAN_POINT('',(0.0,25.0,40.0));
#284=DIRECTION('',(0.0,-1.0,0.0));
#285=DIRECTION('',(0.0,0.0,-1.0));
#286=ORIENTED_EDGE('',*,*,#342,.T.);
#287=ORIENTED_EDGE('',*,*,#344,.T.);
#288=ORIENTED_EDGE('',*,*,#346,.T.);
#289=ORIENTED_EDGE('',*,*,#358,.T.);
#290=ORIENTED_EDGE('',*,*,#364,.T.);
#291=ORIENTED_EDGE('',*,*,#370,.F.);
#292=ORIENTED_EDGE('',*,*,#371,.F.);
#293=ORIENTED_EDGE('',*,*,#372,.T.);
#294=ORIENTED_EDGE('',*,*,#373,.F.);
#295=CARTESIAN_POINT('',(0.0,-25.0,40.0));
#296=DIRECTION('',(0.0,1.0,0.0));
#297=DIRECTION('',(0.0,0.0,1.0));
#298=ORIENTED_EDGE('',*,*,#363,.T.);
#299=ORIENTED_EDGE('',*,*,#374,.T.);
#300=ORIENTED_EDGE('',*,*,#375,.F.);
#301=ORIENTED_EDGE('',*,*,#370,.T.);
#302=CARTESIAN_POINT('',(75.0,0.0,40.0));
#303=DIRECTION('',(-1.0,0.0,0.0));
#304=DIRECTION('',(0.0,0.0,1.0));
#305=ORIENTED_EDGE('',*,*,#343,.T.);
#306=ORIENTED_EDGE('',*,*,#345,.T.);
#307=ORIENTED_EDGE('',*,*,#347,.T.);
#308=ORIENTED_EDGE('',*,*,#356,.T.);
#309=ORIENTED_EDGE('',*,*,#367,.T.);
#310=ORIENTED_EDGE('',*,*,#376,.F.);
#311=ORIENTED_EDGE('',*,*,#377,.F.);
#312=ORIENTED_EDGE('',*,*,#374,.F.);
#313=ORIENTED_EDGE('',*,*,#362,.T.);
#314=CARTESIAN_POINT('',(0.0,-15.0,50.0));
#315=DIRECTION('',(0.0,1.0,0.0));
#316=DIRECTION('',(0.0,0.0,1.0));
#317=ORIENTED_EDGE('',*,*,#377,.T.);
#318=ORIENTED_EDGE('',*,*,#378,.T.);
#319=ORIENTED_EDGE('',*,*,#371,.T.);
#320=ORIENTED_EDGE('',*,*,#375,.T.);
#321=CARTESIAN_POINT('',(0.0,0.0,80.0));
#322=DIRECTION('',(0.0,0.0,1.0));
#323=DIRECTION('',(1.0,0.0,0.0));
#324=ORIENTED_EDGE('',*,*,#351,.T.);
#325=ORIENTED_EDGE('',*,*,#355,.T.);
#326=ORIENTED_EDGE('',*,*,#359,.T.);
#327=ORIENTED_EDGE('',*,*,#373,.T.);
#328=ORIENTED_EDGE('',*,*,#379,.T.);
#329=ORIENTED_EDGE('',*,*,#368,.T.);
#330=CARTESIAN_POINT('',(0.0,0.0,0.0));
#331=DIRECTION('',(0.0,0.0,1.0));
#332=DIRECTION('',(1.0,0.0,0.0));
#333=ORIENTED_EDGE('',*,*,#366,.T.);
#334=ORIENTED_EDGE('',*,*,#369,.T.);
#335=ORIENTED_EDGE('',*,*,#379,.F.);
#336=ORIENTED_EDGE('',*,*,#372,.F.);
#337=ORIENTED_EDGE('',*,*,#378,.F.);
#338=ORIENTED_EDGE('',*,*,#376,.T.);
#339=CARTESIAN_POINT('',(-75.0,0.0,40.0));
#340=DIRECTION('',(1.0,0.0,0.0));
#341=DIRECTION('',(0.0,0.0,-1.0));
#342=EDGE_CURVE('',#380,#380,#381,.T.);
#343=EDGE_CURVE('',#382,#382,#383,.T.);
#344=EDGE_CURVE('',#384,#384,#385,.T.);
#345=EDGE_CURVE('',#386,#386,#387,.T.);
#346=EDGE_CURVE('',#388,#388,#389,.T.);
#347=EDGE_CURVE('',#390,#390,#391,.T.);
#348=EDGE_CURVE('',#392,#392,#393,.T.);
#349=EDGE_CURVE('',#394,#394,#395,.T.);
#350=EDGE_CURVE('',#396,#396,#397,.T.);
#351=EDGE_CURVE('',#398,#398,#399,.T.);
#352=EDGE_CURVE('',#400,#400,#401,.T.);
#353=EDGE_CURVE('',#402,#402,#403,.T.);
#354=EDGE_CURVE('',#404,#404,#405,.T.);
#355=EDGE_CURVE('',#406,#406,#407,.T.);
#356=EDGE_CURVE('',#408,#409,#410,.T.);
#357=EDGE_CURVE('',#408,#411,#412,.T.);
#358=EDGE_CURVE('',#413,#411,#414,.T.);
#359=EDGE_CURVE('',#415,#413,#416,.T.);
#360=EDGE_CURVE('',#417,#415,#418,.T.);
#361=EDGE_CURVE('',#409,#417,#419,.T.);
#362=EDGE_CURVE('',#420,#408,#421,.T.);
#363=EDGE_CURVE('',#422,#420,#423,.T.);
#364=EDGE_CURVE('',#411,#422,#424,.T.);
#365=EDGE_CURVE('',#425,#417,#426,.T.);
#366=EDGE_CURVE('',#427,#425,#428,.T.);
#367=EDGE_CURVE('',#409,#427,#429,.T.);
#368=EDGE_CURVE('',#430,#415,#431,.T.);
#369=EDGE_CURVE('',#425,#430,#432,.T.);
#370=EDGE_CURVE('',#433,#422,#434,.T.);
#371=EDGE_CURVE('',#435,#433,#436,.T.);
#372=EDGE_CURVE('',#435,#437,#438,.T.);
#373=EDGE_CURVE('',#413,#437,#439,.T.);
#374=EDGE_CURVE('',#420,#440,#441,.T.);
#375=EDGE_CURVE('',#433,#440,#442,.T.);
#376=EDGE_CURVE('',#443,#427,#444,.T.);
#377=EDGE_CURVE('',#440,#443,#445,.T.);
#378=EDGE_CURVE('',#443,#435,#446,.T.);
#379=EDGE_CURVE('',#437,#430,#447,.T.);
#380=VERTEX_POINT('',#448);
#381=CIRCLE('',#449,2.0);
#382=VERTEX_POINT('',#450);
#383=CIRCLE('',#451,2.0);
#384=VERTEX_POINT('',#452);
#385=CIRCLE('',#453,2.0);
#386=VERTEX_POINT('',#454);
#387=CIRCLE('',#455,2.0);
#388=VERTEX_POINT('',#456);
#389=CIRCLE('',#457,12.0);
#390=VERTEX_POINT('',#458);
#391=CIRCLE('',#459,12.0);
#392=VERTEX_POINT('',#460);
#393=CIRCLE('',#461,6.0);
#394=VERTEX_POINT('',#462);
#395=CIRCLE('',#463,3.5);
#396=VERTEX_POINT('',#464);
#397=CIRCLE('',#465,6.0);
#398=VERTEX_POINT('',#466);
#399=CIRCLE('',#467,3.5);
#400=VERTEX_POINT('',#468);
#401=CIRCLE('',#469,6.0);
#402=VERTEX_POINT('',#470);
#403=CIRCLE('',#471,3.5);
#404=VERTEX_POINT('',#472);
#405=CIRCLE('',#473,6.0);
#406=VERTEX_POINT('',#474);
#407=CIRCLE('',#475,3.5);
#408=VERTEX_POINT('',#476);
#409=VERTEX_POINT('',#477);
#410=LINE('',#478,#479);
#411=VERTEX_POINT('',#480);
#412=LINE('',#481,#482);
#413=VERTEX_POINT('',#483);
#414=LINE('',#484,#485);
#415=VERTEX_POINT('',#486);
#416=LINE('',#487,#488);
#417=VERTEX_POINT('',#489);
#418=LINE('',#490,#491);
#419=LINE('',#492,#493);
#420=VERTEX_POINT('',#494);
#421=LINE('',#495,#496);
#422=VERTEX_POINT('',#497);
#423=LINE('',#498,#499);
#424=LINE('',#500,#501);
#425=VERTEX_POINT('',#502);
#426=LINE('',#503,#504);
#427=VERTEX_POINT('',#505);
#428=LINE('',#506,#507);
#429=LINE('',#508,#509);
#430=VERTEX_POINT('',#510);
#431=LINE('',#511,#512);
#432=LINE('',#513,#514);
#433=VERTEX_POINT('',#515);
#434=LINE('',#516,#517);
#435=VERTEX_POINT('',#518);
#436=LINE('',#519,#520);
#437=VERTEX_POINT('',#521);
#438=LINE('',#522,#523);
#439=LINE('',#524,#525);
#440=VERTEX_POINT('',#526);
#441=LINE('',#527,#528);
#442=LINE('',#529,#530);
#443=VERTEX_POINT('',#531);
#444=LINE('',#532,#533);
#445=LINE('',#534,#535);
#446=LINE('',#536,#537);
#447=LINE('',#538,#539);
#448=CARTESIAN_POINT('',(-2.5,-25.0,27.15));
#449=AXIS2_PLACEMENT_3D('',#540,#541,#542);
#450=CARTESIAN_POINT('',(-2.5,-15.0,27.15));
#451=AXIS2_PLACEMENT_3D('',#543,#544,#545);
#452=CARTESIAN_POINT('',(-57.5,-25.0,27.15));
#453=AXIS2_PLACEMENT_3D('',#546,#547,#548);
#454=CARTESIAN_POINT('',(-57.5,-15.0,27.15));
#455=AXIS2_PLACEMENT_3D('',#549,#550,#551);
#456=CARTESIAN_POINT('',(45.0,-25.0,38.0));
#457=AXIS2_PLACEMENT_3D('',#552,#553,#554);
#458=CARTESIAN_POINT('',(45.0,-15.0,38.0));
#459=AXIS2_PLACEMENT_3D('',#555,#556,#557);
#460=CARTESIAN_POINT('',(1.0,3.0,5.0));
#461=AXIS2_PLACEMENT_3D('',#558,#559,#560);
#462=CARTESIAN_POINT('',(-1.5,3.0,5.0));
#463=AXIS2_PLACEMENT_3D('',#561,#562,#563);
#464=CARTESIAN_POINT('',(1.0,3.0,10.0));
#465=AXIS2_PLACEMENT_3D('',#564,#565,#566);
#466=CARTESIAN_POINT('',(-8.5,3.0,0.0));
#467=AXIS2_PLACEMENT_3D('',#567,#568,#569);
#468=CARTESIAN_POINT('',(-49.0,3.0,5.0));
#469=AXIS2_PLACEMENT_3D('',#570,#571,#572);
#470=CARTESIAN_POINT('',(-51.5,3.0,5.0));
#471=AXIS2_PLACEMENT_3D('',#573,#574,#575);
#472=CARTESIAN_POINT('',(-49.0,3.0,10.0));
#473=AXIS2_PLACEMENT_3D('',#576,#577,#578);
#474=CARTESIAN_POINT('',(-58.5,3.0,0.0));
#475=AXIS2_PLACEMENT_3D('',#579,#580,#581);
#476=CARTESIAN_POINT('',(15.0,-15.0,20.0));
#477=CARTESIAN_POINT('',(15.0,-15.0,10.0));
#478=CARTESIAN_POINT('',(15.0,-15.0,30.0));
#479=VECTOR('',#582,1.0);
#480=CARTESIAN_POINT('',(15.0,-25.0,20.0));
#481=CARTESIAN_POINT('',(15.0,5.0,20.0));
#482=VECTOR('',#583,1.0);
#483=CARTESIAN_POINT('',(15.0,-25.0,0.0));
#484=CARTESIAN_POINT('',(15.0,-25.0,25.0));
#485=VECTOR('',#584,1.0);
#486=CARTESIAN_POINT('',(15.0,25.0,0.0));
#487=CARTESIAN_POINT('',(15.0,2.5,0.0));
#488=VECTOR('',#585,1.0);
#489=CARTESIAN_POINT('',(15.0,25.0,10.0));
#490=CARTESIAN_POINT('',(15.0,25.0,25.0));
#491=VECTOR('',#586,1.0);
#492=CARTESIAN_POINT('',(15.0,7.5,10.0));
#493=VECTOR('',#587,1.0);
#494=CARTESIAN_POINT('',(75.0,-15.0,20.0));
#495=CARTESIAN_POINT('',(22.5,-15.0,20.0));
#496=VECTOR('',#588,1.0);
#497=CARTESIAN_POINT('',(75.0,-25.0,20.0));
#498=CARTESIAN_POINT('',(75.0,2.5,20.0));
#499=VECTOR('',#589,1.0);
#500=CARTESIAN_POINT('',(22.5,-25.0,20.0));
#501=VECTOR('',#590,1.0);
#502=CARTESIAN_POINT('',(-75.0,25.0,10.0));
#503=CARTESIAN_POINT('',(0.0,25.0,10.0));
#504=VECTOR('',#591,1.0);
#505=CARTESIAN_POINT('',(-75.0,-15.0,10.0));
#506=CARTESIAN_POINT('',(-75.0,5.0,10.0));
#507=VECTOR('',#592,1.0);
#508=CARTESIAN_POINT('',(0.0,-15.0,10.0));
#509=VECTOR('',#593,1.0);
#510=CARTESIAN_POINT('',(-75.0,25.0,0.0));
#511=CARTESIAN_POINT('',(0.0,25.0,0.0));
#512=VECTOR('',#594,1.0);
#513=CARTESIAN_POINT('',(-75.0,25.0,40.0));
#514=VECTOR('',#595,1.0);
#515=CARTESIAN_POINT('',(75.0,-25.0,80.0));
#516=CARTESIAN_POINT('',(75.0,-25.0,40.0));
#517=VECTOR('',#596,1.0);
#518=CARTESIAN_POINT('',(-75.0,-25.0,80.0));
#519=CARTESIAN_POINT('',(0.0,-25.0,80.0));
#520=VECTOR('',#597,1.0);
#521=CARTESIAN_POINT('',(-75.0,-25.0,0.0));
#522=CARTESIAN_POINT('',(-75.0,-25.0,40.0));
#523=VECTOR('',#598,1.0);
#524=CARTESIAN_POINT('',(0.0,-25.0,0.0));
#525=VECTOR('',#599,1.0);
#526=CARTESIAN_POINT('',(75.0,-15.0,80.0));
#527=CARTESIAN_POINT('',(75.0,-15.0,45.0));
#528=VECTOR('',#600,1.0);
#529=CARTESIAN_POINT('',(75.0,0.0,80.0));
#530=VECTOR('',#601,1.0);
#531=CARTESIAN_POINT('',(-75.0,-15.0,80.0));
#532=CARTESIAN_POINT('',(-75.0,-15.0,45.0));
#533=VECTOR('',#602,1.0);
#534=CARTESIAN_POINT('',(0.0,-15.0,80.0));
#535=VECTOR('',#603,1.0);
#536=CARTESIAN_POINT('',(-75.0,0.0,80.0));
#537=VECTOR('',#604,1.0);
#538=CARTESIAN_POINT('',(-75.0,0.0,0.0));
#539=VECTOR('',#605,1.0);
#540=CARTESIAN_POINT('',(-2.5,-25.0,29.15));
#541=DIRECTION('',(0.0,1.0,0.0));
#542=DIRECTION('',(0.0,0.0,-1.0));
#543=CARTESIAN_POINT('',(-2.5,-15.0,29.15));
#544=DIRECTION('',(0.0,-1.0,-0.0));
#545=DIRECTION('',(0.0,0.0,-1.0));
#546=CARTESIAN_POINT('',(-57.5,-25.0,29.15));
#547=DIRECTION('',(0.0,1.0,0.0));
#548=DIRECTION('',(0.0,0.0,-1.0));
#549=CARTESIAN_POINT('',(-57.5,-15.0,29.15));
#550=DIRECTION('',(0.0,-1.0,-0.0));
#551=DIRECTION('',(0.0,0.0,-1.0));
#552=CARTESIAN_POINT('',(45.0,-25.0,50.0));
#553=DIRECTION('',(0.0,1.0,0.0));
#554=DIRECTION('',(0.0,0.0,-1.0));
#555=CARTESIAN_POINT('',(45.0,-15.0,50.0));
#556=DIRECTION('',(0.0,-1.0,-0.0));
#557=DIRECTION('',(0.0,0.0,-1.0));
#558=CARTESIAN_POINT('',(-5.0,3.0,5.0));
#559=DIRECTION('',(0.0,0.0,-1.0));
#560=DIRECTION('',(1.0,0.0,0.0));
#561=CARTESIAN_POINT('',(-5.0,3.0,5.0));
#562=DIRECTION('',(0.0,0.0,1.0));
#563=DIRECTION('',(1.0,0.0,0.0));
#564=CARTESIAN_POINT('',(-5.0,3.0,10.0));
#565=DIRECTION('',(0.0,0.0,-1.0));
#566=DIRECTION('',(1.0,0.0,0.0));
#567=CARTESIAN_POINT('',(-5.0,3.0,0.0));
#568=DIRECTION('',(0.0,0.0,1.0));
#569=DIRECTION('',(1.0,0.0,0.0));
#570=CARTESIAN_POINT('',(-55.0,3.0,5.0));
#571=DIRECTION('',(0.0,0.0,-1.0));
#572=DIRECTION('',(1.0,0.0,0.0));
#573=CARTESIAN_POINT('',(-55.0,3.0,5.0));
#574=DIRECTION('',(0.0,0.0,1.0));
#575=DIRECTION('',(1.0,0.0,0.0));
#576=CARTESIAN_POINT('',(-55.0,3.0,10.0));
#577=DIRECTION('',(0.0,0.0,-1.0));
#578=DIRECTION('',(1.0,0.0,0.0));
#579=CARTESIAN_POINT('',(-55.0,3.0,0.0));
#580=DIRECTION('',(0.0,0.0,1.0));
#581=DIRECTION('',(1.0,0.0,0.0));
#582=DIRECTION('',(0.0,0.0,-1.0));
#583=DIRECTION('',(0.0,-1.0,0.0));
#584=DIRECTION('',(0.0,0.0,1.0));
#585=DIRECTION('',(0.0,-1.0,0.0));
#586=DIRECTION('',(0.0,0.0,-1.0));
#587=DIRECTION('',(0.0,1.0,0.0));
#588=DIRECTION('',(-1.0,0.0,0.0));
#589=DIRECTION('',(0.0,1.0,-0.0));
#590=DIRECTION('',(1.0,0.0,0.0));
#591=DIRECTION('',(1.0,0.0,-0.0));
#592=DIRECTION('',(0.0,1.0,0.0));
#593=DIRECTION('',(-1.0,0.0,0.0));
#594=DIRECTION('',(1.0,0.0,0.0));
#595=DIRECTION('',(0.0,0.0,-1.0));
#596=DIRECTION('',(0.0,0.0,-1.0));
#597=DIRECTION('',(1.0,0.0,0.0));
#598=DIRECTION('',(0.0,0.0,-1.0));
#599=DIRECTION('',(-1.0,0.0,0.0));
#600=DIRECTION('',(0.0,-0.0,1.0));
#601=DIRECTION('',(0.0,1.0,0.0));
#602=DIRECTION('',(0.0,0.0,-1.0));
#603=DIRECTION('',(-1.0,0.0,0.0));
#604=DIRECTION('',(0.0,-1.0,0.0));
#605=DIRECTION('',(0.0,1.0,0.0));
ENDSEC;
END-ISO-10303-21;
