ISO-10303-21;
HEADER;
FILE_DESCRIPTION(('STEP AP203'),'1');
FILE_NAME('20180607 Plaque_adaptatrice_platine_rotation.1.stp','2018-06-07T16:01:12',(' '),(' '),'Spatial InterOp 3D',' ',' ');
FILE_SCHEMA(('CONFIG_CONTROL_DESIGN'));
ENDSEC;
DATA;
#1=DESIGN_CONTEXT('',#27,'design');
#2=APPLICATION_PROTOCOL_DEFINITION('INTERNATIONAL STANDARD','config_control_design',1994,#27);
#3=PRODUCT_CATEGORY_RELATIONSHIP('NONE','NONE',#28,#29);
#4=DATE_AND_TIME(#30,#31);
#5=DATE_TIME_ROLE('creation_date');
#6=DATE_TIME_ROLE('classification_date');
#7=PERSON_AND_ORGANIZATION_ROLE('creator');
#8=PERSON_AND_ORGANIZATION_ROLE('design_supplier');
#9=PERSON_AND_ORGANIZATION_ROLE('classification_officer');
#10=PERSON_AND_ORGANIZATION_ROLE('design_owner');
#11=APPROVAL_PERSON_ORGANIZATION(#32,#33,#34);
#12=APPROVAL_DATE_TIME(#4,#33);
#13=CC_DESIGN_APPROVAL(#33,(#35,#36,#37));
#14=CC_DESIGN_DATE_AND_TIME_ASSIGNMENT(#4,#5,(#37));
#15=CC_DESIGN_DATE_AND_TIME_ASSIGNMENT(#4,#6,(#35));
#16=CC_DESIGN_PERSON_AND_ORGANIZATION_ASSIGNMENT(#32,#10,(#38));
#17=CC_DESIGN_PERSON_AND_ORGANIZATION_ASSIGNMENT(#32,#7,(#37));
#18=CC_DESIGN_PERSON_AND_ORGANIZATION_ASSIGNMENT(#32,#7,(#36));
#19=CC_DESIGN_PERSON_AND_ORGANIZATION_ASSIGNMENT(#32,#8,(#36));
#20=CC_DESIGN_SECURITY_CLASSIFICATION(#35,(#36));
#21=CC_DESIGN_PERSON_AND_ORGANIZATION_ASSIGNMENT(#32,#9,(#35));
#22=SHAPE_DEFINITION_REPRESENTATION(#39,#40);
#23= (GEOMETRIC_REPRESENTATION_CONTEXT(3)GLOBAL_UNCERTAINTY_ASSIGNED_CONTEXT((#43))GLOBAL_UNIT_ASSIGNED_CONTEXT((#45,#46,#47))REPRESENTATION_CONTEXT('NONE','WORKSPACE'));
#27=APPLICATION_CONTEXT('CONFIGURATION CONTROLLED 3D DESIGNS OF MECHANICAL PARTS AND ASSEMBLIES');
#28=PRODUCT_CATEGORY('part','NONE');
#29=PRODUCT_RELATED_PRODUCT_CATEGORY('detail',' ',(#38));
#30=CALENDAR_DATE(2018,7,5);
#31=LOCAL_TIME(18,1,12.0,#49);
#32=PERSON_AND_ORGANIZATION(#50,#51);
#33=APPROVAL(#52,'SOLID MODEL');
#34=APPROVAL_ROLE('APPROVED');
#35=SECURITY_CLASSIFICATION('','',#53);
#36=PRODUCT_DEFINITION_FORMATION_WITH_SPECIFIED_SOURCE(' ','NONE',#38,.NOT_KNOWN.);
#37=PRODUCT_DEFINITION('NONE','NONE',#36,#1);
#38=PRODUCT('1','1','PART-1-DESC',(#54));
#39=PRODUCT_DEFINITION_SHAPE('NONE','NONE',#37);
#40=ADVANCED_BREP_SHAPE_REPRESENTATION('1',(#55,#56),#23);
#43=UNCERTAINTY_MEASURE_WITH_UNIT(LENGTH_MEASURE(1.0E-006),#45,'','');
#45= (CONVERSION_BASED_UNIT('MILLIMETRE',#59)LENGTH_UNIT()NAMED_UNIT(#62));
#46= (NAMED_UNIT(#64)PLANE_ANGLE_UNIT()SI_UNIT($,.RADIAN.));
#47= (NAMED_UNIT(#64)SOLID_ANGLE_UNIT()SI_UNIT($,.STERADIAN.));
#49=COORDINATED_UNIVERSAL_TIME_OFFSET(1,0,.AHEAD.);
#50=PERSON('','UNSPECIFIED',$,$,$,$);
#51=ORGANIZATION('UNSPECIFIED','UNSPECIFIED','UNSPECIFIED');
#52=APPROVAL_STATUS('approved');
#53=SECURITY_CLASSIFICATION_LEVEL('unclassified');
#54=MECHANICAL_CONTEXT('',#27,'mechanical');
#55=MANIFOLD_SOLID_BREP('1',#70);
#56=AXIS2_PLACEMENT_3D('',#71,#72,#73);
#59=LENGTH_MEASURE_WITH_UNIT(LENGTH_MEASURE(1.0),#74);
#62=DIMENSIONAL_EXPONENTS(1.0,0.0,0.0,0.0,0.0,0.0,0.0);
#64=DIMENSIONAL_EXPONENTS(0.0,0.0,0.0,0.0,0.0,0.0,0.0);
#70=CLOSED_SHELL('',(#75,#76,#77,#78,#79,#80,#81,#82,#83,#84,#85,#86,#87,#88,#89,#90,#91,#92,#93,#94,#95,#96,#97,#98));
#71=CARTESIAN_POINT('',(0.0,0.0,0.0));
#72=DIRECTION('',(0.0,0.0,1.0));
#73=DIRECTION('',(1.0,0.0,0.0));
#74= (NAMED_UNIT(#62)LENGTH_UNIT()SI_UNIT(.MILLI.,.METRE.));
#75=ADVANCED_FACE('',(#100,#101),#102,.F.);
#76=ADVANCED_FACE('',(#103,#104),#105,.F.);
#77=ADVANCED_FACE('',(#106,#107),#108,.F.);
#78=ADVANCED_FACE('',(#109,#110),#111,.F.);
#79=ADVANCED_FACE('',(#112,#113),#114,.F.);
#80=ADVANCED_FACE('',(#115,#116),#117,.F.);
#81=ADVANCED_FACE('',(#118,#119),#120,.F.);
#82=ADVANCED_FACE('',(#121,#122),#123,.F.);
#83=ADVANCED_FACE('',(#124,#125),#126,.F.);
#84=ADVANCED_FACE('',(#127,#128),#129,.F.);
#85=ADVANCED_FACE('',(#130,#131),#132,.F.);
#86=ADVANCED_FACE('',(#133,#134),#135,.F.);
#87=ADVANCED_FACE('',(#136,#137),#138,.F.);
#88=ADVANCED_FACE('',(#139,#140),#141,.F.);
#89=ADVANCED_FACE('',(#142,#143),#144,.F.);
#90=ADVANCED_FACE('',(#145,#146),#147,.F.);
#91=ADVANCED_FACE('',(#148,#149),#150,.F.);
#92=ADVANCED_FACE('',(#151,#152),#153,.F.);
#93=ADVANCED_FACE('',(#154),#155,.F.);
#94=ADVANCED_FACE('',(#156),#157,.F.);
#95=ADVANCED_FACE('',(#158),#159,.F.);
#96=ADVANCED_FACE('',(#160,#161,#162,#163,#164,#165,#166),#167,.T.);
#97=ADVANCED_FACE('',(#168),#169,.T.);
#98=ADVANCED_FACE('',(#170,#171,#172,#173,#174,#175,#176),#177,.T.);
#100=FACE_BOUND('',#178,.T.);
#101=FACE_BOUND('',#179,.T.);
#102=CYLINDRICAL_SURFACE('',#180,3.5);
#103=FACE_BOUND('',#181,.T.);
#104=FACE_BOUND('',#182,.T.);
#105=CYLINDRICAL_SURFACE('',#183,6.0);
#106=FACE_BOUND('',#184,.T.);
#107=FACE_OUTER_BOUND('',#185,.T.);
#108=PLANE('',#186);
#109=FACE_BOUND('',#187,.T.);
#110=FACE_BOUND('',#188,.T.);
#111=CYLINDRICAL_SURFACE('',#189,3.5);
#112=FACE_BOUND('',#190,.T.);
#113=FACE_BOUND('',#191,.T.);
#114=CYLINDRICAL_SURFACE('',#192,6.0);
#115=FACE_BOUND('',#193,.T.);
#116=FACE_OUTER_BOUND('',#194,.T.);
#117=PLANE('',#195);
#118=FACE_OUTER_BOUND('',#196,.T.);
#119=FACE_BOUND('',#197,.T.);
#120=PLANE('',#198);
#121=FACE_BOUND('',#199,.T.);
#122=FACE_BOUND('',#200,.T.);
#123=CYLINDRICAL_SURFACE('',#201,4.0);
#124=FACE_BOUND('',#202,.T.);
#125=FACE_BOUND('',#203,.T.);
#126=CYLINDRICAL_SURFACE('',#204,2.5);
#127=FACE_BOUND('',#205,.T.);
#128=FACE_BOUND('',#206,.T.);
#129=CYLINDRICAL_SURFACE('',#207,2.5);
#130=FACE_BOUND('',#208,.T.);
#131=FACE_BOUND('',#209,.T.);
#132=CYLINDRICAL_SURFACE('',#210,4.0);
#133=FACE_BOUND('',#211,.T.);
#134=FACE_OUTER_BOUND('',#212,.T.);
#135=PLANE('',#213);
#136=FACE_BOUND('',#214,.T.);
#137=FACE_BOUND('',#215,.T.);
#138=CYLINDRICAL_SURFACE('',#216,2.5);
#139=FACE_BOUND('',#217,.T.);
#140=FACE_BOUND('',#218,.T.);
#141=CYLINDRICAL_SURFACE('',#219,4.0);
#142=FACE_BOUND('',#220,.T.);
#143=FACE_OUTER_BOUND('',#221,.T.);
#144=PLANE('',#222);
#145=FACE_BOUND('',#223,.T.);
#146=FACE_BOUND('',#224,.T.);
#147=CYLINDRICAL_SURFACE('',#225,2.5);
#148=FACE_BOUND('',#226,.T.);
#149=FACE_BOUND('',#227,.T.);
#150=CYLINDRICAL_SURFACE('',#228,4.0);
#151=FACE_BOUND('',#229,.T.);
#152=FACE_OUTER_BOUND('',#230,.T.);
#153=PLANE('',#231);
#154=FACE_OUTER_BOUND('',#232,.T.);
#155=PLANE('',#233);
#156=FACE_OUTER_BOUND('',#234,.T.);
#157=PLANE('',#235);
#158=FACE_OUTER_BOUND('',#236,.T.);
#159=PLANE('',#237);
#160=FACE_BOUND('',#238,.T.);
#161=FACE_BOUND('',#239,.T.);
#162=FACE_BOUND('',#240,.T.);
#163=FACE_BOUND('',#241,.T.);
#164=FACE_BOUND('',#242,.T.);
#165=FACE_BOUND('',#243,.T.);
#166=FACE_OUTER_BOUND('',#244,.T.);
#167=PLANE('',#245);
#168=FACE_OUTER_BOUND('',#246,.T.);
#169=CYLINDRICAL_SURFACE('',#247,25.0);
#170=FACE_BOUND('',#248,.T.);
#171=FACE_BOUND('',#249,.T.);
#172=FACE_BOUND('',#250,.T.);
#173=FACE_BOUND('',#251,.T.);
#174=FACE_BOUND('',#252,.T.);
#175=FACE_BOUND('',#253,.T.);
#176=FACE_OUTER_BOUND('',#254,.T.);
#177=PLANE('',#255);
#178=EDGE_LOOP('',(#256));
#179=EDGE_LOOP('',(#257));
#180=AXIS2_PLACEMENT_3D('',#258,#259,#260);
#181=EDGE_LOOP('',(#261));
#182=EDGE_LOOP('',(#262));
#183=AXIS2_PLACEMENT_3D('',#263,#264,#265);
#184=EDGE_LOOP('',(#266));
#185=EDGE_LOOP('',(#267));
#186=AXIS2_PLACEMENT_3D('',#268,#269,#270);
#187=EDGE_LOOP('',(#271));
#188=EDGE_LOOP('',(#272));
#189=AXIS2_PLACEMENT_3D('',#273,#274,#275);
#190=EDGE_LOOP('',(#276));
#191=EDGE_LOOP('',(#277));
#192=AXIS2_PLACEMENT_3D('',#278,#279,#280);
#193=EDGE_LOOP('',(#281));
#194=EDGE_LOOP('',(#282));
#195=AXIS2_PLACEMENT_3D('',#283,#284,#285);
#196=EDGE_LOOP('',(#286));
#197=EDGE_LOOP('',(#287));
#198=AXIS2_PLACEMENT_3D('',#288,#289,#290);
#199=EDGE_LOOP('',(#291));
#200=EDGE_LOOP('',(#292));
#201=AXIS2_PLACEMENT_3D('',#293,#294,#295);
#202=EDGE_LOOP('',(#296));
#203=EDGE_LOOP('',(#297));
#204=AXIS2_PLACEMENT_3D('',#298,#299,#300);
#205=EDGE_LOOP('',(#301));
#206=EDGE_LOOP('',(#302));
#207=AXIS2_PLACEMENT_3D('',#303,#304,#305);
#208=EDGE_LOOP('',(#306));
#209=EDGE_LOOP('',(#307));
#210=AXIS2_PLACEMENT_3D('',#308,#309,#310);
#211=EDGE_LOOP('',(#311));
#212=EDGE_LOOP('',(#312));
#213=AXIS2_PLACEMENT_3D('',#313,#314,#315);
#214=EDGE_LOOP('',(#316));
#215=EDGE_LOOP('',(#317));
#216=AXIS2_PLACEMENT_3D('',#318,#319,#320);
#217=EDGE_LOOP('',(#321));
#218=EDGE_LOOP('',(#322));
#219=AXIS2_PLACEMENT_3D('',#323,#324,#325);
#220=EDGE_LOOP('',(#326));
#221=EDGE_LOOP('',(#327));
#222=AXIS2_PLACEMENT_3D('',#328,#329,#330);
#223=EDGE_LOOP('',(#331));
#224=EDGE_LOOP('',(#332));
#225=AXIS2_PLACEMENT_3D('',#333,#334,#335);
#226=EDGE_LOOP('',(#336));
#227=EDGE_LOOP('',(#337));
#228=AXIS2_PLACEMENT_3D('',#338,#339,#340);
#229=EDGE_LOOP('',(#341));
#230=EDGE_LOOP('',(#342));
#231=AXIS2_PLACEMENT_3D('',#343,#344,#345);
#232=EDGE_LOOP('',(#346,#347,#348,#349));
#233=AXIS2_PLACEMENT_3D('',#350,#351,#352);
#234=EDGE_LOOP('',(#353,#354,#355,#356));
#235=AXIS2_PLACEMENT_3D('',#357,#358,#359);
#236=EDGE_LOOP('',(#360,#361,#362,#363));
#237=AXIS2_PLACEMENT_3D('',#364,#365,#366);
#238=EDGE_LOOP('',(#367));
#239=EDGE_LOOP('',(#368));
#240=EDGE_LOOP('',(#369));
#241=EDGE_LOOP('',(#370));
#242=EDGE_LOOP('',(#371));
#243=EDGE_LOOP('',(#372));
#244=EDGE_LOOP('',(#373,#374,#375,#376));
#245=AXIS2_PLACEMENT_3D('',#377,#378,#379);
#246=EDGE_LOOP('',(#380,#381,#382,#383));
#247=AXIS2_PLACEMENT_3D('',#384,#385,#386);
#248=EDGE_LOOP('',(#387));
#249=EDGE_LOOP('',(#388));
#250=EDGE_LOOP('',(#389));
#251=EDGE_LOOP('',(#390));
#252=EDGE_LOOP('',(#391));
#253=EDGE_LOOP('',(#392));
#254=EDGE_LOOP('',(#393,#394,#395,#396));
#255=AXIS2_PLACEMENT_3D('',#397,#398,#399);
#256=ORIENTED_EDGE('',*,*,#400,.T.);
#257=ORIENTED_EDGE('',*,*,#401,.F.);
#258=CARTESIAN_POINT('',(0.0,96.5,2.5));
#259=DIRECTION('',(0.0,0.0,-1.0));
#260=DIRECTION('',(0.0,-1.0,0.0));
#261=ORIENTED_EDGE('',*,*,#402,.F.);
#262=ORIENTED_EDGE('',*,*,#403,.T.);
#263=CARTESIAN_POINT('',(0.0,96.5,7.5));
#264=DIRECTION('',(0.0,0.0,-1.0));
#265=DIRECTION('',(0.0,-1.0,0.0));
#266=ORIENTED_EDGE('',*,*,#400,.F.);
#267=ORIENTED_EDGE('',*,*,#403,.F.);
#268=CARTESIAN_POINT('',(0.0,96.5,5.0));
#269=DIRECTION('',(0.0,0.0,-1.0));
#270=DIRECTION('',(0.0,-1.0,0.0));
#271=ORIENTED_EDGE('',*,*,#404,.T.);
#272=ORIENTED_EDGE('',*,*,#405,.F.);
#273=CARTESIAN_POINT('',(0.0,135.5,2.5));
#274=DIRECTION('',(0.0,0.0,-1.0));
#275=DIRECTION('',(0.0,-1.0,0.0));
#276=ORIENTED_EDGE('',*,*,#406,.F.);
#277=ORIENTED_EDGE('',*,*,#407,.T.);
#278=CARTESIAN_POINT('',(0.0,135.5,7.5));
#279=DIRECTION('',(0.0,0.0,-1.0));
#280=DIRECTION('',(0.0,-1.0,0.0));
#281=ORIENTED_EDGE('',*,*,#404,.F.);
#282=ORIENTED_EDGE('',*,*,#407,.F.);
#283=CARTESIAN_POINT('',(0.0,135.5,5.0));
#284=DIRECTION('',(0.0,0.0,-1.0));
#285=DIRECTION('',(0.0,-1.0,0.0));
#286=ORIENTED_EDGE('',*,*,#408,.F.);
#287=ORIENTED_EDGE('',*,*,#409,.F.);
#288=CARTESIAN_POINT('',(0.0,-17.678,5.0));
#289=DIRECTION('',(0.0,0.0,1.0));
#290=DIRECTION('',(1.0,0.0,0.0));
#291=ORIENTED_EDGE('',*,*,#410,.F.);
#292=ORIENTED_EDGE('',*,*,#408,.T.);
#293=CARTESIAN_POINT('',(0.0,-17.678,2.5));
#294=DIRECTION('',(0.0,0.0,1.0));
#295=DIRECTION('',(1.0,0.0,0.0));
#296=ORIENTED_EDGE('',*,*,#409,.T.);
#297=ORIENTED_EDGE('',*,*,#411,.F.);
#298=CARTESIAN_POINT('',(0.0,-17.678,7.5));
#299=DIRECTION('',(0.0,0.0,1.0));
#300=DIRECTION('',(1.0,0.0,0.0));
#301=ORIENTED_EDGE('',*,*,#412,.T.);
#302=ORIENTED_EDGE('',*,*,#413,.F.);
#303=CARTESIAN_POINT('',(17.678,0.0,7.5));
#304=DIRECTION('',(0.0,0.0,1.0));
#305=DIRECTION('',(1.0,0.0,0.0));
#306=ORIENTED_EDGE('',*,*,#414,.F.);
#307=ORIENTED_EDGE('',*,*,#415,.T.);
#308=CARTESIAN_POINT('',(17.678,0.0,2.5));
#309=DIRECTION('',(0.0,0.0,1.0));
#310=DIRECTION('',(1.0,0.0,0.0));
#311=ORIENTED_EDGE('',*,*,#412,.F.);
#312=ORIENTED_EDGE('',*,*,#415,.F.);
#313=CARTESIAN_POINT('',(17.678,0.0,5.0));
#314=DIRECTION('',(0.0,0.0,1.0));
#315=DIRECTION('',(1.0,0.0,0.0));
#316=ORIENTED_EDGE('',*,*,#416,.T.);
#317=ORIENTED_EDGE('',*,*,#417,.F.);
#318=CARTESIAN_POINT('',(0.0,17.678,7.5));
#319=DIRECTION('',(0.0,0.0,1.0));
#320=DIRECTION('',(1.0,0.0,0.0));
#321=ORIENTED_EDGE('',*,*,#418,.F.);
#322=ORIENTED_EDGE('',*,*,#419,.T.);
#323=CARTESIAN_POINT('',(0.0,17.678,2.5));
#324=DIRECTION('',(0.0,0.0,1.0));
#325=DIRECTION('',(1.0,0.0,0.0));
#326=ORIENTED_EDGE('',*,*,#416,.F.);
#327=ORIENTED_EDGE('',*,*,#419,.F.);
#328=CARTESIAN_POINT('',(0.0,17.678,5.0));
#329=DIRECTION('',(0.0,0.0,1.0));
#330=DIRECTION('',(1.0,0.0,0.0));
#331=ORIENTED_EDGE('',*,*,#420,.T.);
#332=ORIENTED_EDGE('',*,*,#421,.F.);
#333=CARTESIAN_POINT('',(-17.6776695296637,0.0,7.5));
#334=DIRECTION('',(0.0,0.0,1.0));
#335=DIRECTION('',(1.0,0.0,0.0));
#336=ORIENTED_EDGE('',*,*,#422,.F.);
#337=ORIENTED_EDGE('',*,*,#423,.T.);
#338=CARTESIAN_POINT('',(-17.6776695296637,0.0,2.5));
#339=DIRECTION('',(0.0,0.0,1.0));
#340=DIRECTION('',(1.0,0.0,0.0));
#341=ORIENTED_EDGE('',*,*,#420,.F.);
#342=ORIENTED_EDGE('',*,*,#423,.F.);
#343=CARTESIAN_POINT('',(-17.6776695296637,0.0,5.0));
#344=DIRECTION('',(0.0,0.0,1.0));
#345=DIRECTION('',(1.0,0.0,0.0));
#346=ORIENTED_EDGE('',*,*,#424,.T.);
#347=ORIENTED_EDGE('',*,*,#425,.T.);
#348=ORIENTED_EDGE('',*,*,#426,.T.);
#349=ORIENTED_EDGE('',*,*,#427,.T.);
#350=CARTESIAN_POINT('',(0.0,150.0,5.0));
#351=DIRECTION('',(0.0,-1.0,0.0));
#352=DIRECTION('',(0.0,0.0,1.0));
#353=ORIENTED_EDGE('',*,*,#428,.T.);
#354=ORIENTED_EDGE('',*,*,#425,.F.);
#355=ORIENTED_EDGE('',*,*,#429,.F.);
#356=ORIENTED_EDGE('',*,*,#430,.F.);
#357=CARTESIAN_POINT('',(25.0,75.0,5.0));
#358=DIRECTION('',(-1.0,0.0,0.0));
#359=DIRECTION('',(0.0,-1.0,0.0));
#360=ORIENTED_EDGE('',*,*,#431,.T.);
#361=ORIENTED_EDGE('',*,*,#427,.F.);
#362=ORIENTED_EDGE('',*,*,#432,.F.);
#363=ORIENTED_EDGE('',*,*,#433,.F.);
#364=CARTESIAN_POINT('',(-25.0,75.0,5.0));
#365=DIRECTION('',(1.0,0.0,0.0));
#366=DIRECTION('',(0.0,1.0,0.0));
#367=ORIENTED_EDGE('',*,*,#402,.T.);
#368=ORIENTED_EDGE('',*,*,#406,.T.);
#369=ORIENTED_EDGE('',*,*,#411,.T.);
#370=ORIENTED_EDGE('',*,*,#413,.T.);
#371=ORIENTED_EDGE('',*,*,#417,.T.);
#372=ORIENTED_EDGE('',*,*,#421,.T.);
#373=ORIENTED_EDGE('',*,*,#434,.T.);
#374=ORIENTED_EDGE('',*,*,#429,.T.);
#375=ORIENTED_EDGE('',*,*,#424,.F.);
#376=ORIENTED_EDGE('',*,*,#431,.F.);
#377=CARTESIAN_POINT('',(0.0,0.0,10.0));
#378=DIRECTION('',(0.0,0.0,1.0));
#379=DIRECTION('',(1.0,0.0,0.0));
#380=ORIENTED_EDGE('',*,*,#430,.T.);
#381=ORIENTED_EDGE('',*,*,#434,.F.);
#382=ORIENTED_EDGE('',*,*,#433,.T.);
#383=ORIENTED_EDGE('',*,*,#435,.F.);
#384=CARTESIAN_POINT('',(0.0,0.0,5.0));
#385=DIRECTION('',(0.0,0.0,1.0));
#386=DIRECTION('',(1.0,0.0,0.0));
#387=ORIENTED_EDGE('',*,*,#401,.T.);
#388=ORIENTED_EDGE('',*,*,#405,.T.);
#389=ORIENTED_EDGE('',*,*,#410,.T.);
#390=ORIENTED_EDGE('',*,*,#414,.T.);
#391=ORIENTED_EDGE('',*,*,#418,.T.);
#392=ORIENTED_EDGE('',*,*,#422,.T.);
#393=ORIENTED_EDGE('',*,*,#435,.T.);
#394=ORIENTED_EDGE('',*,*,#432,.T.);
#395=ORIENTED_EDGE('',*,*,#426,.F.);
#396=ORIENTED_EDGE('',*,*,#428,.F.);
#397=CARTESIAN_POINT('',(0.0,0.0,0.0));
#398=DIRECTION('',(0.0,0.0,-1.0));
#399=DIRECTION('',(-1.0,0.0,0.0));
#400=EDGE_CURVE('',#436,#436,#437,.T.);
#401=EDGE_CURVE('',#438,#438,#439,.T.);
#402=EDGE_CURVE('',#440,#440,#441,.T.);
#403=EDGE_CURVE('',#442,#442,#443,.T.);
#404=EDGE_CURVE('',#444,#444,#445,.T.);
#405=EDGE_CURVE('',#446,#446,#447,.T.);
#406=EDGE_CURVE('',#448,#448,#449,.T.);
#407=EDGE_CURVE('',#450,#450,#451,.T.);
#408=EDGE_CURVE('',#452,#452,#453,.T.);
#409=EDGE_CURVE('',#454,#454,#455,.T.);
#410=EDGE_CURVE('',#456,#456,#457,.T.);
#411=EDGE_CURVE('',#458,#458,#459,.T.);
#412=EDGE_CURVE('',#460,#460,#461,.T.);
#413=EDGE_CURVE('',#462,#462,#463,.T.);
#414=EDGE_CURVE('',#464,#464,#465,.T.);
#415=EDGE_CURVE('',#466,#466,#467,.T.);
#416=EDGE_CURVE('',#468,#468,#469,.T.);
#417=EDGE_CURVE('',#470,#470,#471,.T.);
#418=EDGE_CURVE('',#472,#472,#473,.T.);
#419=EDGE_CURVE('',#474,#474,#475,.T.);
#420=EDGE_CURVE('',#476,#476,#477,.T.);
#421=EDGE_CURVE('',#478,#478,#479,.T.);
#422=EDGE_CURVE('',#480,#480,#481,.T.);
#423=EDGE_CURVE('',#482,#482,#483,.T.);
#424=EDGE_CURVE('',#484,#485,#486,.T.);
#425=EDGE_CURVE('',#485,#487,#488,.T.);
#426=EDGE_CURVE('',#487,#489,#490,.T.);
#427=EDGE_CURVE('',#489,#484,#491,.T.);
#428=EDGE_CURVE('',#492,#487,#493,.T.);
#429=EDGE_CURVE('',#494,#485,#495,.T.);
#430=EDGE_CURVE('',#492,#494,#496,.T.);
#431=EDGE_CURVE('',#497,#484,#498,.T.);
#432=EDGE_CURVE('',#499,#489,#500,.T.);
#433=EDGE_CURVE('',#497,#499,#501,.T.);
#434=EDGE_CURVE('',#497,#494,#502,.T.);
#435=EDGE_CURVE('',#492,#499,#503,.T.);
#436=VERTEX_POINT('',#504);
#437=CIRCLE('',#505,3.5);
#438=VERTEX_POINT('',#506);
#439=CIRCLE('',#507,3.5);
#440=VERTEX_POINT('',#508);
#441=CIRCLE('',#509,6.0);
#442=VERTEX_POINT('',#510);
#443=CIRCLE('',#511,6.0);
#444=VERTEX_POINT('',#512);
#445=CIRCLE('',#513,3.5);
#446=VERTEX_POINT('',#514);
#447=CIRCLE('',#515,3.5);
#448=VERTEX_POINT('',#516);
#449=CIRCLE('',#517,6.0);
#450=VERTEX_POINT('',#518);
#451=CIRCLE('',#519,6.0);
#452=VERTEX_POINT('',#520);
#453=CIRCLE('',#521,4.0);
#454=VERTEX_POINT('',#522);
#455=CIRCLE('',#523,2.5);
#456=VERTEX_POINT('',#524);
#457=CIRCLE('',#525,4.0);
#458=VERTEX_POINT('',#526);
#459=CIRCLE('',#527,2.5);
#460=VERTEX_POINT('',#528);
#461=CIRCLE('',#529,2.5);
#462=VERTEX_POINT('',#530);
#463=CIRCLE('',#531,2.5);
#464=VERTEX_POINT('',#532);
#465=CIRCLE('',#533,4.0);
#466=VERTEX_POINT('',#534);
#467=CIRCLE('',#535,4.0);
#468=VERTEX_POINT('',#536);
#469=CIRCLE('',#537,2.5);
#470=VERTEX_POINT('',#538);
#471=CIRCLE('',#539,2.5);
#472=VERTEX_POINT('',#540);
#473=CIRCLE('',#541,4.0);
#474=VERTEX_POINT('',#542);
#475=CIRCLE('',#543,4.0);
#476=VERTEX_POINT('',#544);
#477=CIRCLE('',#545,2.5);
#478=VERTEX_POINT('',#546);
#479=CIRCLE('',#547,2.5);
#480=VERTEX_POINT('',#548);
#481=CIRCLE('',#549,4.0);
#482=VERTEX_POINT('',#550);
#483=CIRCLE('',#551,4.0);
#484=VERTEX_POINT('',#552);
#485=VERTEX_POINT('',#553);
#486=LINE('',#554,#555);
#487=VERTEX_POINT('',#556);
#488=LINE('',#557,#558);
#489=VERTEX_POINT('',#559);
#490=LINE('',#560,#561);
#491=LINE('',#562,#563);
#492=VERTEX_POINT('',#564);
#493=LINE('',#565,#566);
#494=VERTEX_POINT('',#567);
#495=LINE('',#568,#569);
#496=LINE('',#570,#571);
#497=VERTEX_POINT('',#572);
#498=LINE('',#573,#574);
#499=VERTEX_POINT('',#575);
#500=LINE('',#576,#577);
#501=LINE('',#578,#579);
#502=CIRCLE('',#580,25.0);
#503=CIRCLE('',#581,25.0);
#504=CARTESIAN_POINT('',(0.0,93.0,5.0));
#505=AXIS2_PLACEMENT_3D('',#582,#583,#584);
#506=CARTESIAN_POINT('',(0.0,93.0,0.0));
#507=AXIS2_PLACEMENT_3D('',#585,#586,#587);
#508=CARTESIAN_POINT('',(0.0,90.5,10.0));
#509=AXIS2_PLACEMENT_3D('',#588,#589,#590);
#510=CARTESIAN_POINT('',(0.0,90.5,5.0));
#511=AXIS2_PLACEMENT_3D('',#591,#592,#593);
#512=CARTESIAN_POINT('',(0.0,132.0,5.0));
#513=AXIS2_PLACEMENT_3D('',#594,#595,#596);
#514=CARTESIAN_POINT('',(0.0,132.0,0.0));
#515=AXIS2_PLACEMENT_3D('',#597,#598,#599);
#516=CARTESIAN_POINT('',(0.0,129.5,10.0));
#517=AXIS2_PLACEMENT_3D('',#600,#601,#602);
#518=CARTESIAN_POINT('',(0.0,129.5,5.0));
#519=AXIS2_PLACEMENT_3D('',#603,#604,#605);
#520=CARTESIAN_POINT('',(4.0,-17.678,5.0));
#521=AXIS2_PLACEMENT_3D('',#606,#607,#608);
#522=CARTESIAN_POINT('',(2.5,-17.678,5.0));
#523=AXIS2_PLACEMENT_3D('',#609,#610,#611);
#524=CARTESIAN_POINT('',(4.0,-17.678,0.0));
#525=AXIS2_PLACEMENT_3D('',#612,#613,#614);
#526=CARTESIAN_POINT('',(2.5,-17.678,10.0));
#527=AXIS2_PLACEMENT_3D('',#615,#616,#617);
#528=CARTESIAN_POINT('',(20.178,0.0,5.0));
#529=AXIS2_PLACEMENT_3D('',#618,#619,#620);
#530=CARTESIAN_POINT('',(20.178,0.0,10.0));
#531=AXIS2_PLACEMENT_3D('',#621,#622,#623);
#532=CARTESIAN_POINT('',(21.678,0.0,0.0));
#533=AXIS2_PLACEMENT_3D('',#624,#625,#626);
#534=CARTESIAN_POINT('',(21.678,0.0,5.0));
#535=AXIS2_PLACEMENT_3D('',#627,#628,#629);
#536=CARTESIAN_POINT('',(2.5,17.678,5.0));
#537=AXIS2_PLACEMENT_3D('',#630,#631,#632);
#538=CARTESIAN_POINT('',(2.5,17.678,10.0));
#539=AXIS2_PLACEMENT_3D('',#633,#634,#635);
#540=CARTESIAN_POINT('',(4.0,17.678,0.0));
#541=AXIS2_PLACEMENT_3D('',#636,#637,#638);
#542=CARTESIAN_POINT('',(4.0,17.678,5.0));
#543=AXIS2_PLACEMENT_3D('',#639,#640,#641);
#544=CARTESIAN_POINT('',(-15.1776695296637,0.0,5.0));
#545=AXIS2_PLACEMENT_3D('',#642,#643,#644);
#546=CARTESIAN_POINT('',(-15.1776695296637,0.0,10.0));
#547=AXIS2_PLACEMENT_3D('',#645,#646,#647);
#548=CARTESIAN_POINT('',(-13.6776695296637,0.0,0.0));
#549=AXIS2_PLACEMENT_3D('',#648,#649,#650);
#550=CARTESIAN_POINT('',(-13.6776695296637,0.0,5.0));
#551=AXIS2_PLACEMENT_3D('',#651,#652,#653);
#552=CARTESIAN_POINT('',(-25.0,150.0,10.0));
#553=CARTESIAN_POINT('',(25.0,150.0,10.0));
#554=CARTESIAN_POINT('',(0.0,150.0,10.0));
#555=VECTOR('',#654,1.0);
#556=CARTESIAN_POINT('',(25.0,150.0,0.0));
#557=CARTESIAN_POINT('',(25.0,150.0,5.0));
#558=VECTOR('',#655,1.0);
#559=CARTESIAN_POINT('',(-25.0,150.0,0.0));
#560=CARTESIAN_POINT('',(0.0,150.0,0.0));
#561=VECTOR('',#656,1.0);
#562=CARTESIAN_POINT('',(-25.0,150.0,5.0));
#563=VECTOR('',#657,1.0);
#564=CARTESIAN_POINT('',(25.0,0.0,0.0));
#565=CARTESIAN_POINT('',(25.0,75.0,0.0));
#566=VECTOR('',#658,1.0);
#567=CARTESIAN_POINT('',(25.0,0.0,10.0));
#568=CARTESIAN_POINT('',(25.0,75.0,10.0));
#569=VECTOR('',#659,1.0);
#570=CARTESIAN_POINT('',(25.0,0.0,5.0));
#571=VECTOR('',#660,1.0);
#572=CARTESIAN_POINT('',(-25.0,0.0,10.0));
#573=CARTESIAN_POINT('',(-25.0,75.0,10.0));
#574=VECTOR('',#661,1.0);
#575=CARTESIAN_POINT('',(-25.0,0.0,0.0));
#576=CARTESIAN_POINT('',(-25.0,75.0,0.0));
#577=VECTOR('',#662,1.0);
#578=CARTESIAN_POINT('',(-25.0,0.0,5.0));
#579=VECTOR('',#663,1.0);
#580=AXIS2_PLACEMENT_3D('',#664,#665,#666);
#581=AXIS2_PLACEMENT_3D('',#667,#668,#669);
#582=CARTESIAN_POINT('',(0.0,96.5,5.0));
#583=DIRECTION('',(-0.0,0.0,1.0));
#584=DIRECTION('',(0.0,-1.0,0.0));
#585=CARTESIAN_POINT('',(0.0,96.5,0.0));
#586=DIRECTION('',(-0.0,0.0,1.0));
#587=DIRECTION('',(0.0,-1.0,0.0));
#588=CARTESIAN_POINT('',(0.0,96.5,10.0));
#589=DIRECTION('',(-0.0,-0.0,-1.0));
#590=DIRECTION('',(0.0,-1.0,0.0));
#591=CARTESIAN_POINT('',(0.0,96.5,5.0));
#592=DIRECTION('',(0.0,0.0,-1.0));
#593=DIRECTION('',(0.0,-1.0,0.0));
#594=CARTESIAN_POINT('',(0.0,135.5,5.0));
#595=DIRECTION('',(-0.0,0.0,1.0));
#596=DIRECTION('',(0.0,-1.0,0.0));
#597=CARTESIAN_POINT('',(0.0,135.5,0.0));
#598=DIRECTION('',(-0.0,0.0,1.0));
#599=DIRECTION('',(0.0,-1.0,0.0));
#600=CARTESIAN_POINT('',(0.0,135.5,10.0));
#601=DIRECTION('',(-0.0,-0.0,-1.0));
#602=DIRECTION('',(0.0,-1.0,0.0));
#603=CARTESIAN_POINT('',(0.0,135.5,5.0));
#604=DIRECTION('',(0.0,0.0,-1.0));
#605=DIRECTION('',(0.0,-1.0,0.0));
#606=CARTESIAN_POINT('',(0.0,-17.678,5.0));
#607=DIRECTION('',(0.0,0.0,1.0));
#608=DIRECTION('',(1.0,0.0,0.0));
#609=CARTESIAN_POINT('',(0.0,-17.678,5.0));
#610=DIRECTION('',(0.0,0.0,-1.0));
#611=DIRECTION('',(1.0,0.0,0.0));
#612=CARTESIAN_POINT('',(0.0,-17.678,0.0));
#613=DIRECTION('',(0.0,-0.0,1.0));
#614=DIRECTION('',(1.0,0.0,0.0));
#615=CARTESIAN_POINT('',(0.0,-17.678,10.0));
#616=DIRECTION('',(0.0,0.0,-1.0));
#617=DIRECTION('',(1.0,0.0,0.0));
#618=CARTESIAN_POINT('',(17.678,0.0,5.0));
#619=DIRECTION('',(0.0,0.0,-1.0));
#620=DIRECTION('',(1.0,0.0,0.0));
#621=CARTESIAN_POINT('',(17.678,0.0,10.0));
#622=DIRECTION('',(0.0,0.0,-1.0));
#623=DIRECTION('',(1.0,0.0,0.0));
#624=CARTESIAN_POINT('',(17.678,0.0,0.0));
#625=DIRECTION('',(0.0,-0.0,1.0));
#626=DIRECTION('',(1.0,0.0,0.0));
#627=CARTESIAN_POINT('',(17.678,0.0,5.0));
#628=DIRECTION('',(0.0,0.0,1.0));
#629=DIRECTION('',(1.0,0.0,0.0));
#630=CARTESIAN_POINT('',(0.0,17.678,5.0));
#631=DIRECTION('',(0.0,0.0,-1.0));
#632=DIRECTION('',(1.0,0.0,0.0));
#633=CARTESIAN_POINT('',(0.0,17.678,10.0));
#634=DIRECTION('',(0.0,0.0,-1.0));
#635=DIRECTION('',(1.0,0.0,0.0));
#636=CARTESIAN_POINT('',(0.0,17.678,0.0));
#637=DIRECTION('',(0.0,-0.0,1.0));
#638=DIRECTION('',(1.0,0.0,0.0));
#639=CARTESIAN_POINT('',(0.0,17.678,5.0));
#640=DIRECTION('',(0.0,0.0,1.0));
#641=DIRECTION('',(1.0,0.0,0.0));
#642=CARTESIAN_POINT('',(-17.6776695296637,0.0,5.0));
#643=DIRECTION('',(0.0,0.0,-1.0));
#644=DIRECTION('',(1.0,0.0,0.0));
#645=CARTESIAN_POINT('',(-17.6776695296637,0.0,10.0));
#646=DIRECTION('',(0.0,0.0,-1.0));
#647=DIRECTION('',(1.0,0.0,0.0));
#648=CARTESIAN_POINT('',(-17.6776695296637,0.0,0.0));
#649=DIRECTION('',(0.0,-0.0,1.0));
#650=DIRECTION('',(1.0,0.0,0.0));
#651=CARTESIAN_POINT('',(-17.6776695296637,0.0,5.0));
#652=DIRECTION('',(0.0,0.0,1.0));
#653=DIRECTION('',(1.0,0.0,0.0));
#654=DIRECTION('',(1.0,0.0,0.0));
#655=DIRECTION('',(0.0,0.0,-1.0));
#656=DIRECTION('',(-1.0,0.0,0.0));
#657=DIRECTION('',(0.0,0.0,1.0));
#658=DIRECTION('',(0.0,1.0,0.0));
#659=DIRECTION('',(0.0,1.0,0.0));
#660=DIRECTION('',(0.0,0.0,1.0));
#661=DIRECTION('',(0.0,1.0,0.0));
#662=DIRECTION('',(0.0,1.0,0.0));
#663=DIRECTION('',(-0.0,-0.0,-1.0));
#664=CARTESIAN_POINT('',(0.0,0.0,10.0));
#665=DIRECTION('',(0.0,0.0,1.0));
#666=DIRECTION('',(1.0,0.0,0.0));
#667=CARTESIAN_POINT('',(0.0,0.0,0.0));
#668=DIRECTION('',(0.0,0.0,-1.0));
#669=DIRECTION('',(1.0,0.0,0.0));
ENDSEC;
END-ISO-10303-21;
