ISO-10303-21;
HEADER;
/* Generated by software containing ST-Developer
 * from STEP Tools, Inc. (www.steptools.com) 
 */

FILE_DESCRIPTION(
/* description */ (''),
/* implementation_level */ '2;1');

FILE_NAME(
/* name */ 'J:\\STEP\\PETITEPLATINE62X62 QTE 2.stp',
/* time_stamp */ '2018-06-22T11:11:33+02:00',
/* author */ ('bonifaceo'),
/* organization */ (''),
/* preprocessor_version */ 'ST-DEVELOPER v17',
/* originating_system */ 'Autodesk Inventor 2019',
/* authorisation */ '');

FILE_SCHEMA (('AUTOMOTIVE_DESIGN { 1 0 10303 214 3 1 1 }'));
ENDSEC;

DATA;
#10=MECHANICAL_DESIGN_GEOMETRIC_PRESENTATION_REPRESENTATION('',(#13),#425);
#11=SHAPE_REPRESENTATION_RELATIONSHIP('SRR','None',#435,#12);
#12=ADVANCED_BREP_SHAPE_REPRESENTATION('',(#14),#424);
#13=STYLED_ITEM('',(#444),#14);
#14=MANIFOLD_SOLID_BREP('Solide1',#249);
#15=FACE_BOUND('',#49,.T.);
#16=FACE_BOUND('',#53,.T.);
#17=FACE_BOUND('',#56,.T.);
#18=PLANE('',#277);
#19=PLANE('',#278);
#20=PLANE('',#279);
#21=PLANE('',#280);
#22=PLANE('',#281);
#23=PLANE('',#282);
#24=PLANE('',#283);
#25=PLANE('',#284);
#26=PLANE('',#285);
#27=PLANE('',#286);
#28=PLANE('',#287);
#29=CONICAL_SURFACE('',#274,0.196850393700734,0.785398163397477);
#30=FACE_OUTER_BOUND('',#43,.T.);
#31=FACE_OUTER_BOUND('',#44,.T.);
#32=FACE_OUTER_BOUND('',#45,.T.);
#33=FACE_OUTER_BOUND('',#46,.T.);
#34=FACE_OUTER_BOUND('',#47,.T.);
#35=FACE_OUTER_BOUND('',#48,.T.);
#36=FACE_OUTER_BOUND('',#50,.T.);
#37=FACE_OUTER_BOUND('',#51,.T.);
#38=FACE_OUTER_BOUND('',#52,.T.);
#39=FACE_OUTER_BOUND('',#54,.T.);
#40=FACE_OUTER_BOUND('',#55,.T.);
#41=FACE_OUTER_BOUND('',#57,.T.);
#42=FACE_OUTER_BOUND('',#58,.T.);
#43=EDGE_LOOP('',(#171,#172,#173,#174,#175,#176));
#44=EDGE_LOOP('',(#177,#178,#179,#180,#181,#182));
#45=EDGE_LOOP('',(#183,#184,#185,#186));
#46=EDGE_LOOP('',(#187,#188,#189,#190));
#47=EDGE_LOOP('',(#191,#192,#193,#194));
#48=EDGE_LOOP('',(#195,#196,#197,#198));
#49=EDGE_LOOP('',(#199,#200,#201,#202));
#50=EDGE_LOOP('',(#203,#204,#205,#206));
#51=EDGE_LOOP('',(#207,#208,#209,#210));
#52=EDGE_LOOP('',(#211,#212,#213,#214));
#53=EDGE_LOOP('',(#215,#216));
#54=EDGE_LOOP('',(#217,#218,#219,#220));
#55=EDGE_LOOP('',(#221,#222,#223,#224));
#56=EDGE_LOOP('',(#225,#226));
#57=EDGE_LOOP('',(#227,#228,#229,#230));
#58=EDGE_LOOP('',(#231,#232,#233,#234));
#59=LINE('',#361,#85);
#60=LINE('',#367,#86);
#61=LINE('',#374,#87);
#62=LINE('',#376,#88);
#63=LINE('',#378,#89);
#64=LINE('',#379,#90);
#65=LINE('',#383,#91);
#66=LINE('',#385,#92);
#67=LINE('',#387,#93);
#68=LINE('',#388,#94);
#69=LINE('',#392,#95);
#70=LINE('',#394,#96);
#71=LINE('',#396,#97);
#72=LINE('',#397,#98);
#73=LINE('',#400,#99);
#74=LINE('',#402,#100);
#75=LINE('',#403,#101);
#76=LINE('',#404,#102);
#77=LINE('',#405,#103);
#78=LINE('',#407,#104);
#79=LINE('',#410,#105);
#80=LINE('',#412,#106);
#81=LINE('',#413,#107);
#82=LINE('',#415,#108);
#83=LINE('',#417,#109);
#84=LINE('',#419,#110);
#85=VECTOR('',#296,0.118110236220401);
#86=VECTOR('',#303,0.196850393700734);
#87=VECTOR('',#310,0.0393700787401575);
#88=VECTOR('',#311,0.0393700787401575);
#89=VECTOR('',#312,0.0393700787401575);
#90=VECTOR('',#313,0.0393700787401575);
#91=VECTOR('',#316,0.0393700787401575);
#92=VECTOR('',#317,0.0393700787401575);
#93=VECTOR('',#318,0.0393700787401575);
#94=VECTOR('',#319,0.0393700787401575);
#95=VECTOR('',#322,0.0393700787401575);
#96=VECTOR('',#323,0.0393700787401575);
#97=VECTOR('',#324,0.0393700787401575);
#98=VECTOR('',#325,0.0393700787401575);
#99=VECTOR('',#328,0.0393700787401575);
#100=VECTOR('',#329,0.0393700787401575);
#101=VECTOR('',#330,0.0393700787401575);
#102=VECTOR('',#331,0.0393700787401575);
#103=VECTOR('',#332,0.0393700787401575);
#104=VECTOR('',#335,0.0393700787401575);
#105=VECTOR('',#338,0.0393700787401575);
#106=VECTOR('',#339,0.0393700787401575);
#107=VECTOR('',#340,0.0393700787401575);
#108=VECTOR('',#343,0.0393700787401575);
#109=VECTOR('',#346,0.0393700787401575);
#110=VECTOR('',#349,0.0393700787401575);
#111=CIRCLE('',#270,0.118110236220401);
#112=CIRCLE('',#271,0.118110236220401);
#113=CIRCLE('',#272,0.118110236220419);
#114=CIRCLE('',#273,0.118110236220419);
#115=CIRCLE('',#275,0.275590551181035);
#116=CIRCLE('',#276,0.275590551181035);
#117=VERTEX_POINT('',#356);
#118=VERTEX_POINT('',#357);
#119=VERTEX_POINT('',#360);
#120=VERTEX_POINT('',#362);
#121=VERTEX_POINT('',#366);
#122=VERTEX_POINT('',#368);
#123=VERTEX_POINT('',#372);
#124=VERTEX_POINT('',#373);
#125=VERTEX_POINT('',#375);
#126=VERTEX_POINT('',#377);
#127=VERTEX_POINT('',#381);
#128=VERTEX_POINT('',#382);
#129=VERTEX_POINT('',#384);
#130=VERTEX_POINT('',#386);
#131=VERTEX_POINT('',#390);
#132=VERTEX_POINT('',#391);
#133=VERTEX_POINT('',#393);
#134=VERTEX_POINT('',#395);
#135=VERTEX_POINT('',#399);
#136=VERTEX_POINT('',#401);
#137=VERTEX_POINT('',#409);
#138=VERTEX_POINT('',#411);
#139=EDGE_CURVE('',#117,#118,#111,.T.);
#140=EDGE_CURVE('',#118,#117,#112,.T.);
#141=EDGE_CURVE('',#118,#119,#59,.T.);
#142=EDGE_CURVE('',#119,#120,#113,.T.);
#143=EDGE_CURVE('',#120,#119,#114,.T.);
#144=EDGE_CURVE('',#119,#121,#60,.T.);
#145=EDGE_CURVE('',#122,#121,#115,.T.);
#146=EDGE_CURVE('',#121,#122,#116,.T.);
#147=EDGE_CURVE('',#123,#124,#61,.T.);
#148=EDGE_CURVE('',#125,#123,#62,.T.);
#149=EDGE_CURVE('',#126,#125,#63,.T.);
#150=EDGE_CURVE('',#124,#126,#64,.T.);
#151=EDGE_CURVE('',#127,#128,#65,.T.);
#152=EDGE_CURVE('',#129,#127,#66,.T.);
#153=EDGE_CURVE('',#130,#129,#67,.T.);
#154=EDGE_CURVE('',#130,#128,#68,.T.);
#155=EDGE_CURVE('',#131,#132,#69,.T.);
#156=EDGE_CURVE('',#132,#133,#70,.T.);
#157=EDGE_CURVE('',#133,#134,#71,.T.);
#158=EDGE_CURVE('',#131,#134,#72,.T.);
#159=EDGE_CURVE('',#131,#135,#73,.T.);
#160=EDGE_CURVE('',#136,#135,#74,.T.);
#161=EDGE_CURVE('',#132,#136,#75,.T.);
#162=EDGE_CURVE('',#126,#128,#76,.T.);
#163=EDGE_CURVE('',#124,#130,#77,.T.);
#164=EDGE_CURVE('',#125,#127,#78,.T.);
#165=EDGE_CURVE('',#135,#137,#79,.T.);
#166=EDGE_CURVE('',#137,#138,#80,.T.);
#167=EDGE_CURVE('',#138,#136,#81,.T.);
#168=EDGE_CURVE('',#123,#129,#82,.T.);
#169=EDGE_CURVE('',#133,#138,#83,.T.);
#170=EDGE_CURVE('',#134,#137,#84,.T.);
#171=ORIENTED_EDGE('',*,*,#139,.F.);
#172=ORIENTED_EDGE('',*,*,#140,.F.);
#173=ORIENTED_EDGE('',*,*,#141,.T.);
#174=ORIENTED_EDGE('',*,*,#142,.T.);
#175=ORIENTED_EDGE('',*,*,#143,.T.);
#176=ORIENTED_EDGE('',*,*,#141,.F.);
#177=ORIENTED_EDGE('',*,*,#143,.F.);
#178=ORIENTED_EDGE('',*,*,#142,.F.);
#179=ORIENTED_EDGE('',*,*,#144,.T.);
#180=ORIENTED_EDGE('',*,*,#145,.F.);
#181=ORIENTED_EDGE('',*,*,#146,.F.);
#182=ORIENTED_EDGE('',*,*,#144,.F.);
#183=ORIENTED_EDGE('',*,*,#147,.F.);
#184=ORIENTED_EDGE('',*,*,#148,.F.);
#185=ORIENTED_EDGE('',*,*,#149,.F.);
#186=ORIENTED_EDGE('',*,*,#150,.F.);
#187=ORIENTED_EDGE('',*,*,#151,.F.);
#188=ORIENTED_EDGE('',*,*,#152,.F.);
#189=ORIENTED_EDGE('',*,*,#153,.F.);
#190=ORIENTED_EDGE('',*,*,#154,.T.);
#191=ORIENTED_EDGE('',*,*,#155,.T.);
#192=ORIENTED_EDGE('',*,*,#156,.T.);
#193=ORIENTED_EDGE('',*,*,#157,.T.);
#194=ORIENTED_EDGE('',*,*,#158,.F.);
#195=ORIENTED_EDGE('',*,*,#155,.F.);
#196=ORIENTED_EDGE('',*,*,#159,.T.);
#197=ORIENTED_EDGE('',*,*,#160,.F.);
#198=ORIENTED_EDGE('',*,*,#161,.F.);
#199=ORIENTED_EDGE('',*,*,#150,.T.);
#200=ORIENTED_EDGE('',*,*,#162,.T.);
#201=ORIENTED_EDGE('',*,*,#154,.F.);
#202=ORIENTED_EDGE('',*,*,#163,.F.);
#203=ORIENTED_EDGE('',*,*,#149,.T.);
#204=ORIENTED_EDGE('',*,*,#164,.T.);
#205=ORIENTED_EDGE('',*,*,#151,.T.);
#206=ORIENTED_EDGE('',*,*,#162,.F.);
#207=ORIENTED_EDGE('',*,*,#160,.T.);
#208=ORIENTED_EDGE('',*,*,#165,.T.);
#209=ORIENTED_EDGE('',*,*,#166,.T.);
#210=ORIENTED_EDGE('',*,*,#167,.T.);
#211=ORIENTED_EDGE('',*,*,#148,.T.);
#212=ORIENTED_EDGE('',*,*,#168,.T.);
#213=ORIENTED_EDGE('',*,*,#152,.T.);
#214=ORIENTED_EDGE('',*,*,#164,.F.);
#215=ORIENTED_EDGE('',*,*,#139,.T.);
#216=ORIENTED_EDGE('',*,*,#140,.T.);
#217=ORIENTED_EDGE('',*,*,#156,.F.);
#218=ORIENTED_EDGE('',*,*,#161,.T.);
#219=ORIENTED_EDGE('',*,*,#167,.F.);
#220=ORIENTED_EDGE('',*,*,#169,.F.);
#221=ORIENTED_EDGE('',*,*,#157,.F.);
#222=ORIENTED_EDGE('',*,*,#169,.T.);
#223=ORIENTED_EDGE('',*,*,#166,.F.);
#224=ORIENTED_EDGE('',*,*,#170,.F.);
#225=ORIENTED_EDGE('',*,*,#145,.T.);
#226=ORIENTED_EDGE('',*,*,#146,.T.);
#227=ORIENTED_EDGE('',*,*,#158,.T.);
#228=ORIENTED_EDGE('',*,*,#170,.T.);
#229=ORIENTED_EDGE('',*,*,#165,.F.);
#230=ORIENTED_EDGE('',*,*,#159,.F.);
#231=ORIENTED_EDGE('',*,*,#147,.T.);
#232=ORIENTED_EDGE('',*,*,#163,.T.);
#233=ORIENTED_EDGE('',*,*,#153,.T.);
#234=ORIENTED_EDGE('',*,*,#168,.F.);
#235=CYLINDRICAL_SURFACE('',#269,0.118110236220401);
#236=ADVANCED_FACE('',(#30),#235,.F.);
#237=ADVANCED_FACE('',(#31),#29,.F.);
#238=ADVANCED_FACE('',(#32),#18,.F.);
#239=ADVANCED_FACE('',(#33),#19,.F.);
#240=ADVANCED_FACE('',(#34),#20,.T.);
#241=ADVANCED_FACE('',(#35,#15),#21,.T.);
#242=ADVANCED_FACE('',(#36),#22,.T.);
#243=ADVANCED_FACE('',(#37),#23,.T.);
#244=ADVANCED_FACE('',(#38,#16),#24,.T.);
#245=ADVANCED_FACE('',(#39),#25,.T.);
#246=ADVANCED_FACE('',(#40,#17),#26,.T.);
#247=ADVANCED_FACE('',(#41),#27,.T.);
#248=ADVANCED_FACE('',(#42),#28,.T.);
#249=CLOSED_SHELL('',(#236,#237,#238,#239,#240,#241,#242,#243,#244,#245,
#246,#247,#248));
#250=DERIVED_UNIT_ELEMENT(#252,1.);
#251=DERIVED_UNIT_ELEMENT(#429,3.);
#252=(
MASS_UNIT()
NAMED_UNIT(*)
SI_UNIT($,.GRAM.)
);
#253=DERIVED_UNIT((#250,#251));
#254=MEASURE_REPRESENTATION_ITEM('density measure',
POSITIVE_RATIO_MEASURE(1.),#253);
#255=PROPERTY_DEFINITION_REPRESENTATION(#260,#257);
#256=PROPERTY_DEFINITION_REPRESENTATION(#261,#258);
#257=REPRESENTATION('material name',(#259),#424);
#258=REPRESENTATION('density',(#254),#424);
#259=DESCRIPTIVE_REPRESENTATION_ITEM('G\X\E9n\X\E9rique','G\X\E9n\X\E9
rique');
#260=PROPERTY_DEFINITION('material property','material name',#437);
#261=PROPERTY_DEFINITION('material property','density of part',#437);
#262=DATE_TIME_ROLE('creation_date');
#263=APPLIED_DATE_AND_TIME_ASSIGNMENT(#264,#262,(#437));
#264=DATE_AND_TIME(#265,#266);
#265=CALENDAR_DATE(2018,22,6);
#266=LOCAL_TIME(11,10,1.,#267);
#267=COORDINATED_UNIVERSAL_TIME_OFFSET(0,0,.BEHIND.);
#268=AXIS2_PLACEMENT_3D('placement',#354,#288,#289);
#269=AXIS2_PLACEMENT_3D('',#355,#290,#291);
#270=AXIS2_PLACEMENT_3D('',#358,#292,#293);
#271=AXIS2_PLACEMENT_3D('',#359,#294,#295);
#272=AXIS2_PLACEMENT_3D('',#363,#297,#298);
#273=AXIS2_PLACEMENT_3D('',#364,#299,#300);
#274=AXIS2_PLACEMENT_3D('',#365,#301,#302);
#275=AXIS2_PLACEMENT_3D('',#369,#304,#305);
#276=AXIS2_PLACEMENT_3D('',#370,#306,#307);
#277=AXIS2_PLACEMENT_3D('',#371,#308,#309);
#278=AXIS2_PLACEMENT_3D('',#380,#314,#315);
#279=AXIS2_PLACEMENT_3D('',#389,#320,#321);
#280=AXIS2_PLACEMENT_3D('',#398,#326,#327);
#281=AXIS2_PLACEMENT_3D('',#406,#333,#334);
#282=AXIS2_PLACEMENT_3D('',#408,#336,#337);
#283=AXIS2_PLACEMENT_3D('',#414,#341,#342);
#284=AXIS2_PLACEMENT_3D('',#416,#344,#345);
#285=AXIS2_PLACEMENT_3D('',#418,#347,#348);
#286=AXIS2_PLACEMENT_3D('',#420,#350,#351);
#287=AXIS2_PLACEMENT_3D('',#421,#352,#353);
#288=DIRECTION('axis',(0.,0.,1.));
#289=DIRECTION('refdir',(1.,0.,0.));
#290=DIRECTION('center_axis',(1.22464679914735E-16,0.,1.));
#291=DIRECTION('ref_axis',(1.,0.,-1.22464679914735E-16));
#292=DIRECTION('center_axis',(1.22464679914735E-16,0.,1.));
#293=DIRECTION('ref_axis',(1.,0.,-1.22464679914735E-16));
#294=DIRECTION('center_axis',(1.22464679914735E-16,0.,1.));
#295=DIRECTION('ref_axis',(1.,0.,-1.22464679914735E-16));
#296=DIRECTION('',(1.22464679914735E-16,0.,1.));
#297=DIRECTION('center_axis',(1.22464679914735E-16,0.,1.));
#298=DIRECTION('ref_axis',(-1.,0.,1.22464679914735E-16));
#299=DIRECTION('center_axis',(1.22464679914735E-16,0.,1.));
#300=DIRECTION('ref_axis',(-1.,0.,1.22464679914735E-16));
#301=DIRECTION('center_axis',(1.22464679914735E-16,0.,1.));
#302=DIRECTION('ref_axis',(1.,0.,-1.22464679914735E-16));
#303=DIRECTION('',(-0.707106781186568,-8.65956056235518E-17,0.707106781186527));
#304=DIRECTION('center_axis',(-7.45709937163179E-15,0.,-1.));
#305=DIRECTION('ref_axis',(1.,0.,-1.22464679914735E-16));
#306=DIRECTION('center_axis',(-7.45709937163179E-15,0.,-1.));
#307=DIRECTION('ref_axis',(1.,0.,-1.22464679914735E-16));
#308=DIRECTION('center_axis',(-5.84312137028609E-17,-1.,7.15575988315036E-33));
#309=DIRECTION('ref_axis',(1.22464679914735E-16,0.,1.));
#310=DIRECTION('',(-3.03042435911061E-13,1.77142930936379E-29,1.));
#311=DIRECTION('',(1.,-5.84312137028609E-17,-1.22464679914735E-16));
#312=DIRECTION('',(-3.03287365270891E-13,1.77142930936379E-29,-1.));
#313=DIRECTION('',(-1.,5.84312137028609E-17,1.22464679914735E-16));
#314=DIRECTION('center_axis',(7.79082849371479E-17,1.,-9.54101317753381E-33));
#315=DIRECTION('ref_axis',(-1.22464679914735E-16,0.,-1.));
#316=DIRECTION('',(3.03287365270891E-13,-2.36190574581839E-29,1.));
#317=DIRECTION('',(-1.,7.79082849371479E-17,1.22464679914735E-16));
#318=DIRECTION('',(3.03042435911061E-13,-2.36190574581839E-29,-1.));
#319=DIRECTION('',(-1.,7.79082849371479E-17,1.22464679914735E-16));
#320=DIRECTION('center_axis',(0.,1.,0.));
#321=DIRECTION('ref_axis',(-1.,0.,1.22464679914735E-16));
#322=DIRECTION('',(-1.,0.,1.22464679914735E-16));
#323=DIRECTION('',(1.22464679914735E-16,0.,1.));
#324=DIRECTION('',(1.,0.,-7.45709937163179E-15));
#325=DIRECTION('',(-1.81776475674671E-13,0.,1.));
#326=DIRECTION('center_axis',(-5.4911302136084E-14,0.,-1.));
#327=DIRECTION('ref_axis',(1.,0.,-5.4911302136084E-14));
#328=DIRECTION('',(0.,-1.,0.));
#329=DIRECTION('',(1.,0.,-5.4911302136084E-14));
#330=DIRECTION('',(0.,-1.,0.));
#331=DIRECTION('',(0.,-1.,0.));
#332=DIRECTION('',(0.,-1.,0.));
#333=DIRECTION('center_axis',(-1.,0.,3.03287365270891E-13));
#334=DIRECTION('ref_axis',(-3.03287365270891E-13,0.,-1.));
#335=DIRECTION('',(0.,-1.,0.));
#336=DIRECTION('center_axis',(0.,-1.,0.));
#337=DIRECTION('ref_axis',(1.,0.,-1.22464679914735E-16));
#338=DIRECTION('',(-1.81776475674671E-13,0.,1.));
#339=DIRECTION('',(-1.,0.,7.45709937163179E-15));
#340=DIRECTION('',(-1.22464679914735E-16,0.,-1.));
#341=DIRECTION('center_axis',(-1.22464679914735E-16,0.,-1.));
#342=DIRECTION('ref_axis',(1.,0.,-1.22464679914735E-16));
#343=DIRECTION('',(0.,-1.,0.));
#344=DIRECTION('center_axis',(-1.,0.,1.22464679914735E-16));
#345=DIRECTION('ref_axis',(-1.22464679914735E-16,0.,-1.));
#346=DIRECTION('',(0.,-1.,0.));
#347=DIRECTION('center_axis',(7.45709937163179E-15,0.,1.));
#348=DIRECTION('ref_axis',(-1.,0.,7.45709937163179E-15));
#349=DIRECTION('',(0.,-1.,0.));
#350=DIRECTION('center_axis',(1.,0.,1.81776475674671E-13));
#351=DIRECTION('ref_axis',(-1.81776475674671E-13,0.,1.));
#352=DIRECTION('center_axis',(1.,0.,3.03042435911061E-13));
#353=DIRECTION('ref_axis',(-3.03042435911061E-13,0.,1.));
#354=CARTESIAN_POINT('',(0.,0.,0.));
#355=CARTESIAN_POINT('Origin',(230.813456379954,60.6056220395998,-58.2391889183776));
#356=CARTESIAN_POINT('',(230.931566616175,60.6056220395998,-58.3179290758579));
#357=CARTESIAN_POINT('',(230.695346143734,60.6056220395998,-58.3179290758579));
#358=CARTESIAN_POINT('Origin',(230.813456379954,60.6056220395998,-58.3179290758579));
#359=CARTESIAN_POINT('Origin',(230.813456379954,60.6056220395998,-58.3179290758579));
#360=CARTESIAN_POINT('',(230.695346143734,60.6056220395998,-58.1604487608973));
#361=CARTESIAN_POINT('',(230.695346143734,60.6056220395998,-58.2391889183776));
#362=CARTESIAN_POINT('',(230.931566616175,60.6056220395998,-58.1604487608973));
#363=CARTESIAN_POINT('Origin',(230.813456379954,60.6056220395998,-58.1604487608973));
#364=CARTESIAN_POINT('Origin',(230.813456379954,60.6056220395998,-58.1604487608973));
#365=CARTESIAN_POINT('Origin',(230.813456379954,60.6056220395998,-58.081708603417));
#366=CARTESIAN_POINT('',(230.537865828773,60.6056220395998,-58.0029684459367));
#367=CARTESIAN_POINT('',(230.616605986254,60.6056220395998,-58.081708603417));
#368=CARTESIAN_POINT('',(231.089046931135,60.6056220395998,-58.0029684459367));
#369=CARTESIAN_POINT('Origin',(230.813456379954,60.6056220395998,-58.0029684459367));
#370=CARTESIAN_POINT('Origin',(230.813456379954,60.6056220395998,-58.0029684459367));
#371=CARTESIAN_POINT('Origin',(232.033928820899,61.662708653773,-58.3179290758579));
#372=CARTESIAN_POINT('',(231.870542994128,61.662708653773,-58.3179290758579));
#373=CARTESIAN_POINT('',(231.870542994128,61.662708653773,-58.1998188396375));
#374=CARTESIAN_POINT('',(231.870542994128,61.662708653773,-58.317929075858));
#375=CARTESIAN_POINT('',(229.756369765781,61.662708653773,-58.3179290758579));
#376=CARTESIAN_POINT('',(230.89514929334,61.662708653773,-58.3179290758579));
#377=CARTESIAN_POINT('',(229.756369765781,61.662708653773,-58.1998188396375));
#378=CARTESIAN_POINT('',(229.756369765781,61.662708653773,-58.2588739577474));
#379=CARTESIAN_POINT('',(232.033928820899,61.662708653773,-58.1998188396375));
#380=CARTESIAN_POINT('Origin',(232.033928820899,59.5485354254266,-58.1998188396375));
#381=CARTESIAN_POINT('',(229.756369765781,59.5485354254266,-58.3179290758579));
#382=CARTESIAN_POINT('',(229.756369765781,59.5485354254266,-58.1998188396375));
#383=CARTESIAN_POINT('',(229.756369765781,59.5485354254266,-58.1998188396371));
#384=CARTESIAN_POINT('',(231.870542994128,59.5485354254266,-58.3179290758579));
#385=CARTESIAN_POINT('',(230.89514929334,59.5485354254266,-58.3179290758579));
#386=CARTESIAN_POINT('',(231.870542994128,59.5485354254266,-58.1998188396375));
#387=CARTESIAN_POINT('',(231.870542994128,59.5485354254266,-58.2588739577477));
#388=CARTESIAN_POINT('',(232.033928820899,59.5485354254266,-58.1998188396375));
#389=CARTESIAN_POINT('Origin',(230.813456379954,61.8260944805447,-58.1534465111785));
#390=CARTESIAN_POINT('',(232.033928820899,61.8260944805447,-58.1998188396375));
#391=CARTESIAN_POINT('',(229.592983939009,61.8260944805447,-58.1998188396375));
#392=CARTESIAN_POINT('',(231.423692600427,61.8260944805447,-58.1998188396375));
#393=CARTESIAN_POINT('',(229.592983939009,61.8260944805447,-58.0029684459367));
#394=CARTESIAN_POINT('',(229.592983939009,61.8260944805447,-58.1998188396375));
#395=CARTESIAN_POINT('',(232.033928820899,61.8260944805447,-58.0029684459367));
#396=CARTESIAN_POINT('',(229.592983939009,61.8260944805447,-58.0029684459367));
#397=CARTESIAN_POINT('',(232.033928820899,61.8260944805447,-58.1998188396375));
#398=CARTESIAN_POINT('Origin',(229.592983939009,61.8260944805447,-58.1998188396375));
#399=CARTESIAN_POINT('',(232.033928820899,59.3851495986549,-58.1998188396375));
#400=CARTESIAN_POINT('',(232.033928820899,61.8260944805447,-58.1998188396375));
#401=CARTESIAN_POINT('',(229.592983939009,59.3851495986549,-58.1998188396375));
#402=CARTESIAN_POINT('',(229.592983939009,59.3851495986549,-58.1998188396375));
#403=CARTESIAN_POINT('',(229.592983939009,61.8260944805447,-58.1998188396375));
#404=CARTESIAN_POINT('',(229.756369765781,61.8260944805447,-58.1998188396375));
#405=CARTESIAN_POINT('',(231.870542994128,61.8260944805447,-58.1998188396375));
#406=CARTESIAN_POINT('Origin',(229.756369765781,61.8260944805447,-58.1998188396375));
#407=CARTESIAN_POINT('',(229.756369765781,61.8260944805447,-58.3179290758579));
#408=CARTESIAN_POINT('Origin',(230.813456379954,59.3851495986549,-58.1534465111785));
#409=CARTESIAN_POINT('',(232.033928820899,59.3851495986549,-58.0029684459367));
#410=CARTESIAN_POINT('',(232.033928820899,59.3851495986549,-58.1998188396375));
#411=CARTESIAN_POINT('',(229.592983939009,59.3851495986549,-58.0029684459367));
#412=CARTESIAN_POINT('',(229.592983939009,59.3851495986549,-58.0029684459367));
#413=CARTESIAN_POINT('',(229.592983939009,59.3851495986549,-58.1998188396375));
#414=CARTESIAN_POINT('Origin',(229.756369765781,61.8260944805447,-58.3179290758579));
#415=CARTESIAN_POINT('',(231.870542994128,61.8260944805447,-58.3179290758579));
#416=CARTESIAN_POINT('Origin',(229.592983939009,61.8260944805447,-58.0029684459367));
#417=CARTESIAN_POINT('',(229.592983939009,61.8260944805447,-58.0029684459367));
#418=CARTESIAN_POINT('Origin',(232.033928820899,61.8260944805447,-58.0029684459367));
#419=CARTESIAN_POINT('',(232.033928820899,61.8260944805447,-58.0029684459367));
#420=CARTESIAN_POINT('Origin',(232.033928820899,61.8260944805447,-58.1998188396375));
#421=CARTESIAN_POINT('Origin',(231.870542994128,61.8260944805447,-58.3179290758579));
#422=UNCERTAINTY_MEASURE_WITH_UNIT(LENGTH_MEASURE(0.000393700787401575),
#427,'DISTANCE_ACCURACY_VALUE',
'Maximum model space distance between geometric entities at asserted c
onnectivities');
#423=UNCERTAINTY_MEASURE_WITH_UNIT(LENGTH_MEASURE(0.000393700787401575),
#427,'DISTANCE_ACCURACY_VALUE',
'Maximum model space distance between geometric entities at asserted c
onnectivities');
#424=(
GEOMETRIC_REPRESENTATION_CONTEXT(3)
GLOBAL_UNCERTAINTY_ASSIGNED_CONTEXT((#422))
GLOBAL_UNIT_ASSIGNED_CONTEXT((#427,#432,#431))
REPRESENTATION_CONTEXT('','3D')
);
#425=(
GEOMETRIC_REPRESENTATION_CONTEXT(3)
GLOBAL_UNCERTAINTY_ASSIGNED_CONTEXT((#423))
GLOBAL_UNIT_ASSIGNED_CONTEXT((#427,#432,#431))
REPRESENTATION_CONTEXT('','3D')
);
#426=DIMENSIONAL_EXPONENTS(1.,0.,0.,0.,0.,0.,0.);
#427=(
CONVERSION_BASED_UNIT('inch',#430)
LENGTH_UNIT()
NAMED_UNIT(#426)
);
#428=(
LENGTH_UNIT()
NAMED_UNIT(*)
SI_UNIT(.MILLI.,.METRE.)
);
#429=(
LENGTH_UNIT()
NAMED_UNIT(*)
SI_UNIT(.CENTI.,.METRE.)
);
#430=LENGTH_MEASURE_WITH_UNIT(LENGTH_MEASURE(25.4),#428);
#431=(
NAMED_UNIT(*)
SI_UNIT($,.STERADIAN.)
SOLID_ANGLE_UNIT()
);
#432=(
NAMED_UNIT(*)
PLANE_ANGLE_UNIT()
SI_UNIT($,.RADIAN.)
);
#433=SHAPE_DEFINITION_REPRESENTATION(#434,#435);
#434=PRODUCT_DEFINITION_SHAPE('',$,#437);
#435=SHAPE_REPRESENTATION('',(#268),#424);
#436=PRODUCT_DEFINITION_CONTEXT('part definition',#441,'design');
#437=PRODUCT_DEFINITION('PETITEPLATINE62X62 QTE 21',
'PETITEPLATINE62X62 QTE 21',#438,#436);
#438=PRODUCT_DEFINITION_FORMATION('',$,#443);
#439=PRODUCT_RELATED_PRODUCT_CATEGORY('PETITEPLATINE62X62 QTE 21',
'PETITEPLATINE62X62 QTE 21',(#443));
#440=APPLICATION_PROTOCOL_DEFINITION('international standard',
'automotive_design',2009,#441);
#441=APPLICATION_CONTEXT(
'Core Data for Automotive Mechanical Design Process');
#442=PRODUCT_CONTEXT('part definition',#441,'mechanical');
#443=PRODUCT('PETITEPLATINE62X62 QTE 21','PETITEPLATINE62X62 QTE 21',$,
(#442));
#444=PRESENTATION_STYLE_ASSIGNMENT((#445));
#445=SURFACE_STYLE_USAGE(.BOTH.,#446);
#446=SURFACE_SIDE_STYLE('',(#447));
#447=SURFACE_STYLE_FILL_AREA(#448);
#448=FILL_AREA_STYLE('',(#449));
#449=FILL_AREA_STYLE_COLOUR('',#450);
#450=COLOUR_RGB('',0.,0.,0.);
ENDSEC;
END-ISO-10303-21;
