ISO-10303-21;
HEADER;
FILE_DESCRIPTION(('STEP AP214'),'1');
FILE_NAME('BMR-044a BRAS BIELLETTE.step','2016-02-18T20:27:17',(' '),(' '),'Spatial InterOp 3D',' ',' ');
FILE_SCHEMA(('automotive_design'));
ENDSEC;
DATA;
#1=MECHANICAL_DESIGN_GEOMETRIC_PRESENTATION_REPRESENTATION(' ',(#10,#11,#12,#13,#14,#15,#16,#17,#18,#19,#20,#21,#22),#6);
#2=PRODUCT_DEFINITION_CONTEXT('',#23,'design');
#3=APPLICATION_PROTOCOL_DEFINITION('INTERNATIONAL STANDARD','automotive_design',1994,#23);
#4=PRODUCT_CATEGORY_RELATIONSHIP('NONE','NONE',#24,#25);
#5=SHAPE_DEFINITION_REPRESENTATION(#26,#27);
#6= (GEOMETRIC_REPRESENTATION_CONTEXT(3)GLOBAL_UNCERTAINTY_ASSIGNED_CONTEXT((#30))GLOBAL_UNIT_ASSIGNED_CONTEXT((#32,#33,#34))REPRESENTATION_CONTEXT('NONE','WORKSPACE'));
#10=STYLED_ITEM('',(#36),#37);
#11=STYLED_ITEM('',(#38),#39);
#12=STYLED_ITEM('',(#40),#41);
#13=STYLED_ITEM('',(#42),#43);
#14=STYLED_ITEM('',(#44),#45);
#15=STYLED_ITEM('',(#46),#47);
#16=STYLED_ITEM('',(#48),#49);
#17=STYLED_ITEM('',(#50),#51);
#18=STYLED_ITEM('',(#52),#53);
#19=STYLED_ITEM('',(#54),#55);
#20=STYLED_ITEM('',(#56),#57);
#21=STYLED_ITEM('',(#58),#59);
#22=STYLED_ITEM('',(#60),#61);
#23=APPLICATION_CONTEXT(' ');
#24=PRODUCT_CATEGORY('part','NONE');
#25=PRODUCT_RELATED_PRODUCT_CATEGORY('detail',' ',(#62));
#26=PRODUCT_DEFINITION_SHAPE('NONE','NONE',#63);
#27=ADVANCED_BREP_SHAPE_REPRESENTATION('BRAS BIELLETTE',(#64,#65),#6);
#30=UNCERTAINTY_MEASURE_WITH_UNIT(LENGTH_MEASURE(0.001),#32,'','');
#32= (CONVERSION_BASED_UNIT('MILLIMETRE',#68)LENGTH_UNIT()NAMED_UNIT(#71));
#33= (NAMED_UNIT(#73)PLANE_ANGLE_UNIT()SI_UNIT($,.RADIAN.));
#34= (NAMED_UNIT(#73)SOLID_ANGLE_UNIT()SI_UNIT($,.STERADIAN.));
#36=PRESENTATION_STYLE_ASSIGNMENT((#79));
#37=ADVANCED_FACE('',(#80,#81),#82,.F.);
#38=PRESENTATION_STYLE_ASSIGNMENT((#83));
#39=ADVANCED_FACE('',(#84,#85),#86,.F.);
#40=PRESENTATION_STYLE_ASSIGNMENT((#87));
#41=ADVANCED_FACE('',(#88),#89,.T.);
#42=PRESENTATION_STYLE_ASSIGNMENT((#90));
#43=ADVANCED_FACE('',(#91),#92,.F.);
#44=PRESENTATION_STYLE_ASSIGNMENT((#93));
#45=ADVANCED_FACE('',(#94),#95,.T.);
#46=PRESENTATION_STYLE_ASSIGNMENT((#96));
#47=ADVANCED_FACE('',(#97,#98,#99),#100,.T.);
#48=PRESENTATION_STYLE_ASSIGNMENT((#101));
#49=ADVANCED_FACE('',(#102,#103),#104,.F.);
#50=PRESENTATION_STYLE_ASSIGNMENT((#105));
#51=ADVANCED_FACE('',(#106),#107,.T.);
#52=PRESENTATION_STYLE_ASSIGNMENT((#108));
#53=ADVANCED_FACE('',(#109),#110,.T.);
#54=PRESENTATION_STYLE_ASSIGNMENT((#111));
#55=ADVANCED_FACE('',(#112,#113),#114,.F.);
#56=PRESENTATION_STYLE_ASSIGNMENT((#115));
#57=ADVANCED_FACE('',(#116,#117,#118),#119,.T.);
#58=PRESENTATION_STYLE_ASSIGNMENT((#120));
#59=ADVANCED_FACE('',(#121,#122),#123,.T.);
#60=PRESENTATION_STYLE_ASSIGNMENT((#124));
#61=ADVANCED_FACE('',(#125),#126,.T.);
#62=PRODUCT('BRAS BIELLETTE','BRAS BIELLETTE','PART-BRAS BIELLETTE-DESC',(#127));
#63=PRODUCT_DEFINITION('NONE','NONE',#128,#2);
#64=MANIFOLD_SOLID_BREP('BRAS BIELLETTE',#129);
#65=AXIS2_PLACEMENT_3D('',#130,#131,#132);
#68=LENGTH_MEASURE_WITH_UNIT(LENGTH_MEASURE(1.0),#133);
#71=DIMENSIONAL_EXPONENTS(1.0,0.0,0.0,0.0,0.0,0.0,0.0);
#73=DIMENSIONAL_EXPONENTS(0.0,0.0,0.0,0.0,0.0,0.0,0.0);
#79=SURFACE_STYLE_USAGE(.BOTH.,#134);
#80=FACE_OUTER_BOUND('',#135,.T.);
#81=FACE_OUTER_BOUND('',#136,.T.);
#82=CYLINDRICAL_SURFACE('',#137,3.10000000000017);
#83=SURFACE_STYLE_USAGE(.BOTH.,#138);
#84=FACE_OUTER_BOUND('',#139,.T.);
#85=FACE_OUTER_BOUND('',#140,.T.);
#86=CYLINDRICAL_SURFACE('',#141,3.10000000000017);
#87=SURFACE_STYLE_USAGE(.BOTH.,#142);
#88=FACE_OUTER_BOUND('',#143,.T.);
#89=PLANE('',#144);
#90=SURFACE_STYLE_USAGE(.BOTH.,#145);
#91=FACE_OUTER_BOUND('',#146,.T.);
#92=CYLINDRICAL_SURFACE('',#147,4.99999999999813);
#93=SURFACE_STYLE_USAGE(.BOTH.,#148);
#94=FACE_OUTER_BOUND('',#149,.T.);
#95=PLANE('',#150);
#96=SURFACE_STYLE_USAGE(.BOTH.,#151);
#97=FACE_BOUND('',#152,.T.);
#98=FACE_OUTER_BOUND('',#153,.T.);
#99=FACE_BOUND('',#154,.T.);
#100=PLANE('',#155);
#101=SURFACE_STYLE_USAGE(.BOTH.,#156);
#102=FACE_BOUND('',#157,.T.);
#103=FACE_OUTER_BOUND('',#158,.T.);
#104=PLANE('',#159);
#105=SURFACE_STYLE_USAGE(.BOTH.,#160);
#106=FACE_OUTER_BOUND('',#161,.T.);
#107=PLANE('',#162);
#108=SURFACE_STYLE_USAGE(.BOTH.,#163);
#109=FACE_OUTER_BOUND('',#164,.T.);
#110=CYLINDRICAL_SURFACE('',#165,7.49999999999687);
#111=SURFACE_STYLE_USAGE(.BOTH.,#166);
#112=FACE_OUTER_BOUND('',#167,.T.);
#113=FACE_OUTER_BOUND('',#168,.T.);
#114=CYLINDRICAL_SURFACE('',#169,3.37499999999874);
#115=SURFACE_STYLE_USAGE(.BOTH.,#170);
#116=FACE_BOUND('',#171,.T.);
#117=FACE_OUTER_BOUND('',#172,.T.);
#118=FACE_BOUND('',#173,.T.);
#119=PLANE('',#174);
#120=SURFACE_STYLE_USAGE(.BOTH.,#175);
#121=FACE_BOUND('',#176,.T.);
#122=FACE_OUTER_BOUND('',#177,.T.);
#123=PLANE('',#178);
#124=SURFACE_STYLE_USAGE(.BOTH.,#179);
#125=FACE_OUTER_BOUND('',#180,.T.);
#126=CYLINDRICAL_SURFACE('',#181,4.99999999999813);
#127=PRODUCT_CONTEXT('',#23,'mechanical');
#128=PRODUCT_DEFINITION_FORMATION_WITH_SPECIFIED_SOURCE(' ','NONE',#62,.NOT_KNOWN.);
#129=CLOSED_SHELL('',(#43,#61,#45,#57,#39,#55,#37,#47,#51,#41,#53,#59,#49));
#130=CARTESIAN_POINT('',(0.0,0.0,0.0));
#131=DIRECTION('',(0.0,0.0,1.0));
#132=DIRECTION('',(1.0,0.0,0.0));
#133= (NAMED_UNIT(#71)LENGTH_UNIT()SI_UNIT(.MILLI.,.METRE.));
#134=SURFACE_SIDE_STYLE('',(#183));
#135=EDGE_LOOP('',(#184));
#136=EDGE_LOOP('',(#185));
#137=AXIS2_PLACEMENT_3D('',#186,#187,#188);
#138=SURFACE_SIDE_STYLE('',(#189));
#139=EDGE_LOOP('',(#190));
#140=EDGE_LOOP('',(#191));
#141=AXIS2_PLACEMENT_3D('',#192,#193,#194);
#142=SURFACE_SIDE_STYLE('',(#195));
#143=EDGE_LOOP('',(#196,#197,#198,#199));
#144=AXIS2_PLACEMENT_3D('',#200,#201,#202);
#145=SURFACE_SIDE_STYLE('',(#203));
#146=EDGE_LOOP('',(#204,#205,#206,#207));
#147=AXIS2_PLACEMENT_3D('',#208,#209,#210);
#148=SURFACE_SIDE_STYLE('',(#211));
#149=EDGE_LOOP('',(#212,#213,#214,#215));
#150=AXIS2_PLACEMENT_3D('',#216,#217,#218);
#151=SURFACE_SIDE_STYLE('',(#219));
#152=EDGE_LOOP('',(#220));
#153=EDGE_LOOP('',(#221,#222,#223,#224));
#154=EDGE_LOOP('',(#225));
#155=AXIS2_PLACEMENT_3D('',#226,#227,#228);
#156=SURFACE_SIDE_STYLE('',(#229));
#157=EDGE_LOOP('',(#230));
#158=EDGE_LOOP('',(#231,#232,#233,#234,#235,#236,#237,#238));
#159=AXIS2_PLACEMENT_3D('',#239,#240,#241);
#160=SURFACE_SIDE_STYLE('',(#242));
#161=EDGE_LOOP('',(#243,#244,#245,#246));
#162=AXIS2_PLACEMENT_3D('',#247,#248,#249);
#163=SURFACE_SIDE_STYLE('',(#250));
#164=EDGE_LOOP('',(#251,#252,#253,#254));
#165=AXIS2_PLACEMENT_3D('',#255,#256,#257);
#166=SURFACE_SIDE_STYLE('',(#258));
#167=EDGE_LOOP('',(#259));
#168=EDGE_LOOP('',(#260));
#169=AXIS2_PLACEMENT_3D('',#261,#262,#263);
#170=SURFACE_SIDE_STYLE('',(#264));
#171=EDGE_LOOP('',(#265));
#172=EDGE_LOOP('',(#266,#267,#268,#269));
#173=EDGE_LOOP('',(#270));
#174=AXIS2_PLACEMENT_3D('',#271,#272,#273);
#175=SURFACE_SIDE_STYLE('',(#274));
#176=EDGE_LOOP('',(#275));
#177=EDGE_LOOP('',(#276,#277,#278,#279,#280,#281,#282,#283));
#178=AXIS2_PLACEMENT_3D('',#284,#285,#286);
#179=SURFACE_SIDE_STYLE('',(#287));
#180=EDGE_LOOP('',(#288,#289,#290,#291));
#181=AXIS2_PLACEMENT_3D('',#292,#293,#294);
#183=SURFACE_STYLE_FILL_AREA(#295);
#184=ORIENTED_EDGE('',*,*,#296,.T.);
#185=ORIENTED_EDGE('',*,*,#297,.F.);
#186=CARTESIAN_POINT('',(569.989684106973,271.631006063189,49.9999999999979));
#187=DIRECTION('',(-0.000949941855758208,-0.999999548805134,5.04961758786274E-023));
#188=DIRECTION('',(1.38778574241496E-017,-1.31326673849579E-020,1.0));
#189=SURFACE_STYLE_FILL_AREA(#298);
#190=ORIENTED_EDGE('',*,*,#299,.T.);
#191=ORIENTED_EDGE('',*,*,#300,.F.);
#192=CARTESIAN_POINT('',(529.989702154783,271.669003737419,49.9999999999979));
#193=DIRECTION('',(-0.000949941855758208,-0.999999548805134,5.04961758786274E-023));
#194=DIRECTION('',(1.38778574241496E-017,-1.31326673849579E-020,1.0));
#195=SURFACE_STYLE_FILL_AREA(#301);
#196=ORIENTED_EDGE('',*,*,#302,.T.);
#197=ORIENTED_EDGE('',*,*,#303,.T.);
#198=ORIENTED_EDGE('',*,*,#304,.F.);
#199=ORIENTED_EDGE('',*,*,#305,.F.);
#200=CARTESIAN_POINT('',(579.989537103742,271.471506712277,55.9999999999982));
#201=DIRECTION('',(0.999999548805134,-0.000949941855758147,-1.38778636378021E-017));
#202=DIRECTION('',(0.000949941855758147,0.999999548805134,-5.0496175877785E-023));
#203=SURFACE_STYLE_FILL_AREA(#306);
#204=ORIENTED_EDGE('',*,*,#307,.F.);
#205=ORIENTED_EDGE('',*,*,#308,.F.);
#206=ORIENTED_EDGE('',*,*,#309,.F.);
#207=ORIENTED_EDGE('',*,*,#310,.F.);
#208=CARTESIAN_POINT('',(524.013594622715,251.524671603054,55.9999999999982));
#209=DIRECTION('',(1.38778574241496E-017,-1.3132667384958E-020,1.0));
#210=DIRECTION('',(0.999999548805133,-0.000949941855758208,-1.3877863637802E-017));
#211=SURFACE_STYLE_FILL_AREA(#311);
#212=ORIENTED_EDGE('',*,*,#312,.F.);
#213=ORIENTED_EDGE('',*,*,#313,.F.);
#214=ORIENTED_EDGE('',*,*,#314,.T.);
#215=ORIENTED_EDGE('',*,*,#315,.T.);
#216=CARTESIAN_POINT('',(475.765737827809,239.766651918866,55.9999999999982));
#217=DIRECTION('',(-0.608007514794358,0.793931270295854,8.44826803842701E-018));
#218=DIRECTION('',(-0.793931270295854,-0.608007514794358,1.10100802132806E-017));
#219=SURFACE_STYLE_FILL_AREA(#316);
#220=ORIENTED_EDGE('',*,*,#297,.T.);
#221=ORIENTED_EDGE('',*,*,#317,.T.);
#222=ORIENTED_EDGE('',*,*,#310,.T.);
#223=ORIENTED_EDGE('',*,*,#318,.F.);
#224=ORIENTED_EDGE('',*,*,#319,.T.);
#225=ORIENTED_EDGE('',*,*,#300,.T.);
#226=CARTESIAN_POINT('',(579.975287975906,256.471513480206,55.9999999999982));
#227=DIRECTION('',(-0.000949941855758208,-0.999999548805134,5.0496175878629E-023));
#228=DIRECTION('',(0.999999548805134,-0.000949941855758208,-1.38778636378021E-017));
#229=SURFACE_STYLE_FILL_AREA(#320);
#230=ORIENTED_EDGE('',*,*,#321,.T.);
#231=ORIENTED_EDGE('',*,*,#317,.F.);
#232=ORIENTED_EDGE('',*,*,#322,.T.);
#233=ORIENTED_EDGE('',*,*,#302,.F.);
#234=ORIENTED_EDGE('',*,*,#323,.F.);
#235=ORIENTED_EDGE('',*,*,#314,.F.);
#236=ORIENTED_EDGE('',*,*,#324,.F.);
#237=ORIENTED_EDGE('',*,*,#325,.F.);
#238=ORIENTED_EDGE('',*,*,#307,.T.);
#239=CARTESIAN_POINT('',(480.325794188765,233.812167391649,55.9999999999982));
#240=DIRECTION('',(-1.38778574241496E-017,1.3132667384958E-020,-1.0));
#241=DIRECTION('',(0.000949941855758208,0.999999548805134,-5.04961758786161E-023));
#242=SURFACE_STYLE_FILL_AREA(#326);
#243=ORIENTED_EDGE('',*,*,#327,.F.);
#244=ORIENTED_EDGE('',*,*,#308,.T.);
#245=ORIENTED_EDGE('',*,*,#325,.T.);
#246=ORIENTED_EDGE('',*,*,#328,.T.);
#247=CARTESIAN_POINT('',(522.321073803478,256.52628165612,55.9999999999982));
#248=DIRECTION('',(0.608007514794358,-0.793931270295854,-8.44826803842701E-018));
#249=DIRECTION('',(0.793931270295854,0.608007514794358,-1.10100802132806E-017));
#250=SURFACE_STYLE_FILL_AREA(#329);
#251=ORIENTED_EDGE('',*,*,#330,.F.);
#252=ORIENTED_EDGE('',*,*,#328,.F.);
#253=ORIENTED_EDGE('',*,*,#324,.T.);
#254=ORIENTED_EDGE('',*,*,#313,.T.);
#255=CARTESIAN_POINT('',(480.325794188765,233.812167391649,55.9999999999982));
#256=DIRECTION('',(-1.38778574241496E-017,1.3132667384958E-020,-1.0));
#257=DIRECTION('',(0.000949941855758208,0.999999548805134,-5.04961758786161E-023));
#258=SURFACE_STYLE_FILL_AREA(#331);
#259=ORIENTED_EDGE('',*,*,#332,.F.);
#260=ORIENTED_EDGE('',*,*,#321,.F.);
#261=CARTESIAN_POINT('',(480.325794188765,233.812167391649,59.3750000001693));
#262=DIRECTION('',(-1.38778574241496E-017,1.3132667384958E-020,-1.0));
#263=DIRECTION('',(-0.999999548805134,0.000949941855758208,1.3877863637802E-017));
#264=SURFACE_STYLE_FILL_AREA(#333);
#265=ORIENTED_EDGE('',*,*,#296,.F.);
#266=ORIENTED_EDGE('',*,*,#334,.F.);
#267=ORIENTED_EDGE('',*,*,#315,.F.);
#268=ORIENTED_EDGE('',*,*,#323,.T.);
#269=ORIENTED_EDGE('',*,*,#305,.T.);
#270=ORIENTED_EDGE('',*,*,#299,.F.);
#271=CARTESIAN_POINT('',(517.243511345766,271.53111181532,55.9999999999982));
#272=DIRECTION('',(0.000949941855758208,0.999999548805134,-5.0496175878629E-023));
#273=DIRECTION('',(-0.999999548805134,0.000949941855758208,1.38778636378021E-017));
#274=SURFACE_STYLE_FILL_AREA(#335);
#275=ORIENTED_EDGE('',*,*,#332,.T.);
#276=ORIENTED_EDGE('',*,*,#304,.T.);
#277=ORIENTED_EDGE('',*,*,#336,.T.);
#278=ORIENTED_EDGE('',*,*,#318,.T.);
#279=ORIENTED_EDGE('',*,*,#309,.T.);
#280=ORIENTED_EDGE('',*,*,#327,.T.);
#281=ORIENTED_EDGE('',*,*,#330,.T.);
#282=ORIENTED_EDGE('',*,*,#312,.T.);
#283=ORIENTED_EDGE('',*,*,#334,.T.);
#284=CARTESIAN_POINT('',(480.325794188765,233.812167391649,43.9999999999976));
#285=DIRECTION('',(-1.38778574241496E-017,1.3132667384958E-020,-1.0));
#286=DIRECTION('',(0.000949941855758208,0.999999548805134,-5.04961758786161E-023));
#287=SURFACE_STYLE_FILL_AREA(#337);
#288=ORIENTED_EDGE('',*,*,#322,.F.);
#289=ORIENTED_EDGE('',*,*,#319,.F.);
#290=ORIENTED_EDGE('',*,*,#336,.F.);
#291=ORIENTED_EDGE('',*,*,#303,.F.);
#292=CARTESIAN_POINT('',(574.980039941161,261.476260933509,55.9999999999982));
#293=DIRECTION('',(-1.38778574241496E-017,1.3132667384958E-020,-1.0));
#294=DIRECTION('',(-0.999999548805133,0.000949941855758208,1.3877863637802E-017));
#295=FILL_AREA_STYLE('',(#338));
#296=EDGE_CURVE('',#339,#339,#340,.T.);
#297=EDGE_CURVE('',#341,#341,#342,.T.);
#298=FILL_AREA_STYLE('',(#343));
#299=EDGE_CURVE('',#344,#344,#345,.T.);
#300=EDGE_CURVE('',#346,#346,#347,.T.);
#301=FILL_AREA_STYLE('',(#348));
#302=EDGE_CURVE('',#349,#350,#351,.T.);
#303=EDGE_CURVE('',#350,#352,#353,.T.);
#304=EDGE_CURVE('',#354,#352,#355,.T.);
#305=EDGE_CURVE('',#349,#354,#356,.T.);
#306=FILL_AREA_STYLE('',(#357));
#307=EDGE_CURVE('',#358,#359,#360,.T.);
#308=EDGE_CURVE('',#361,#358,#362,.F.);
#309=EDGE_CURVE('',#363,#361,#364,.F.);
#310=EDGE_CURVE('',#359,#363,#365,.T.);
#311=FILL_AREA_STYLE('',(#366));
#312=EDGE_CURVE('',#367,#368,#369,.T.);
#313=EDGE_CURVE('',#370,#367,#371,.T.);
#314=EDGE_CURVE('',#370,#372,#373,.T.);
#315=EDGE_CURVE('',#372,#368,#374,.T.);
#316=FILL_AREA_STYLE('',(#375));
#317=EDGE_CURVE('',#376,#359,#377,.T.);
#318=EDGE_CURVE('',#378,#363,#379,.T.);
#319=EDGE_CURVE('',#378,#376,#380,.F.);
#320=FILL_AREA_STYLE('',(#381));
#321=EDGE_CURVE('',#382,#382,#383,.T.);
#322=EDGE_CURVE('',#376,#350,#384,.F.);
#323=EDGE_CURVE('',#372,#349,#385,.T.);
#324=EDGE_CURVE('',#386,#370,#387,.T.);
#325=EDGE_CURVE('',#358,#386,#388,.T.);
#326=FILL_AREA_STYLE('',(#389));
#327=EDGE_CURVE('',#361,#390,#391,.T.);
#328=EDGE_CURVE('',#386,#390,#392,.T.);
#329=FILL_AREA_STYLE('',(#393));
#330=EDGE_CURVE('',#390,#367,#394,.T.);
#331=FILL_AREA_STYLE('',(#395));
#332=EDGE_CURVE('',#396,#396,#397,.T.);
#333=FILL_AREA_STYLE('',(#398));
#334=EDGE_CURVE('',#368,#354,#399,.T.);
#335=FILL_AREA_STYLE('',(#400));
#336=EDGE_CURVE('',#352,#378,#401,.T.);
#337=FILL_AREA_STYLE('',(#402));
#338=FILL_AREA_STYLE_COLOUR('',#403);
#339=VERTEX_POINT('',#404);
#340=CIRCLE('',#405,3.10000000000017);
#341=VERTEX_POINT('',#406);
#342=CIRCLE('',#407,3.10000000000017);
#343=FILL_AREA_STYLE_COLOUR('',#408);
#344=VERTEX_POINT('',#409);
#345=CIRCLE('',#410,3.10000000000017);
#346=VERTEX_POINT('',#411);
#347=CIRCLE('',#412,3.10000000000017);
#348=FILL_AREA_STYLE_COLOUR('',#413);
#349=VERTEX_POINT('',#414);
#350=VERTEX_POINT('',#415);
#351=LINE('',#416,#417);
#352=VERTEX_POINT('',#418);
#353=LINE('',#419,#420);
#354=VERTEX_POINT('',#421);
#355=LINE('',#422,#423);
#356=LINE('',#424,#425);
#357=FILL_AREA_STYLE_COLOUR('',#426);
#358=VERTEX_POINT('',#427);
#359=VERTEX_POINT('',#428);
#360=CIRCLE('',#429,4.99999999999813);
#361=VERTEX_POINT('',#430);
#362=LINE('',#431,#432);
#363=VERTEX_POINT('',#433);
#364=CIRCLE('',#434,4.99999999999813);
#365=LINE('',#435,#436);
#366=FILL_AREA_STYLE_COLOUR('',#437);
#367=VERTEX_POINT('',#438);
#368=VERTEX_POINT('',#439);
#369=LINE('',#440,#441);
#370=VERTEX_POINT('',#442);
#371=LINE('',#443,#444);
#372=VERTEX_POINT('',#445);
#373=LINE('',#446,#447);
#374=LINE('',#448,#449);
#375=FILL_AREA_STYLE_COLOUR('',#450);
#376=VERTEX_POINT('',#451);
#377=LINE('',#452,#453);
#378=VERTEX_POINT('',#454);
#379=LINE('',#455,#456);
#380=LINE('',#457,#458);
#381=FILL_AREA_STYLE_COLOUR('',#459);
#382=VERTEX_POINT('',#460);
#383=CIRCLE('',#461,3.37499999999874);
#384=CIRCLE('',#462,4.99999999999813);
#385=LINE('',#463,#464);
#386=VERTEX_POINT('',#465);
#387=CIRCLE('',#466,7.4999999999972);
#388=LINE('',#467,#468);
#389=FILL_AREA_STYLE_COLOUR('',#469);
#390=VERTEX_POINT('',#470);
#391=LINE('',#471,#472);
#392=LINE('',#473,#474);
#393=FILL_AREA_STYLE_COLOUR('',#475);
#394=CIRCLE('',#476,7.4999999999972);
#395=FILL_AREA_STYLE_COLOUR('',#477);
#396=VERTEX_POINT('',#478);
#397=CIRCLE('',#479,3.37499999999874);
#398=FILL_AREA_STYLE_COLOUR('',#480);
#399=LINE('',#481,#482);
#400=FILL_AREA_STYLE_COLOUR('',#483);
#401=CIRCLE('',#484,4.99999999999813);
#402=FILL_AREA_STYLE_COLOUR('',#485);
#403=COLOUR_RGB('',0.752941191196442,0.752941191196442,0.752941191196442);
#404=CARTESIAN_POINT('',(569.989541615695,271.481006130835,46.8999999999977));
#405=AXIS2_PLACEMENT_3D('',#486,#487,#488);
#406=CARTESIAN_POINT('',(569.975292487858,256.481012898764,53.0999999999981));
#407=AXIS2_PLACEMENT_3D('',#489,#490,#491);
#408=COLOUR_RGB('',0.752941191196442,0.752941191196442,0.752941191196442);
#409=CARTESIAN_POINT('',(529.989559663504,271.519003805065,46.8999999999977));
#410=AXIS2_PLACEMENT_3D('',#492,#493,#494);
#411=CARTESIAN_POINT('',(529.975310535668,256.519010572994,53.0999999999981));
#412=AXIS2_PLACEMENT_3D('',#495,#496,#497);
#413=COLOUR_RGB('',0.752941191196442,0.752941191196442,0.752941191196442);
#414=CARTESIAN_POINT('',(579.989537103742,271.471506712277,55.9999999999982));
#415=CARTESIAN_POINT('',(579.980037685185,261.47151122423,55.9999999999982));
#416=CARTESIAN_POINT('',(579.989537103742,271.471506712277,55.9999999999982));
#417=VECTOR('',#498,1.0);
#418=CARTESIAN_POINT('',(579.980037685185,261.47151122423,43.9999999999976));
#419=CARTESIAN_POINT('',(579.980037685185,261.47151122423,55.9999999999982));
#420=VECTOR('',#499,1.0);
#421=CARTESIAN_POINT('',(579.989537103742,271.471506712277,43.9999999999976));
#422=CARTESIAN_POINT('',(579.989537103742,271.471506712277,43.9999999999976));
#423=VECTOR('',#500,1.0);
#424=CARTESIAN_POINT('',(579.989537103742,271.471506712277,55.9999999999982));
#425=VECTOR('',#501,1.0);
#426=COLOUR_RGB('',0.752941191196442,0.752941191196442,0.752941191196442);
#427=CARTESIAN_POINT('',(520.973557048745,255.494327954532,55.9999999999982));
#428=CARTESIAN_POINT('',(524.018344331994,256.524669347077,55.9999999999982));
#429=AXIS2_PLACEMENT_3D('',#502,#503,#504);
#430=CARTESIAN_POINT('',(520.973557048745,255.494327954532,43.9999999999976));
#431=CARTESIAN_POINT('',(520.973557048745,255.494327954532,55.9999999999982));
#432=VECTOR('',#505,1.0);
#433=CARTESIAN_POINT('',(524.018344331994,256.524669347077,43.9999999999976));
#434=AXIS2_PLACEMENT_3D('',#506,#507,#508);
#435=CARTESIAN_POINT('',(524.018344331994,256.524669347077,43.9999999999976));
#436=VECTOR('',#509,1.0);
#437=COLOUR_RGB('',0.752941191196442,0.752941191196442,0.752941191196442);
#438=CARTESIAN_POINT('',(475.765737827809,239.766651918866,43.9999999999976));
#439=CARTESIAN_POINT('',(517.243511345766,271.53111181532,43.9999999999976));
#440=CARTESIAN_POINT('',(475.765737827809,239.766651918866,43.9999999999976));
#441=VECTOR('',#510,1.0);
#442=CARTESIAN_POINT('',(475.765737827809,239.766651918866,55.9999999999982));
#443=CARTESIAN_POINT('',(475.765737827809,239.766651918866,55.9999999999982));
#444=VECTOR('',#511,1.0);
#445=CARTESIAN_POINT('',(517.243511345766,271.53111181532,55.9999999999982));
#446=CARTESIAN_POINT('',(475.765737827809,239.766651918866,55.9999999999982));
#447=VECTOR('',#512,1.0);
#448=CARTESIAN_POINT('',(517.243511345766,271.53111181532,55.9999999999982));
#449=VECTOR('',#513,1.0);
#450=COLOUR_RGB('',0.752941191196442,0.752941191196442,0.752941191196442);
#451=CARTESIAN_POINT('',(574.975290231882,256.476263189485,55.9999999999982));
#452=CARTESIAN_POINT('',(579.975287975906,256.471513480206,55.9999999999982));
#453=VECTOR('',#514,1.0);
#454=CARTESIAN_POINT('',(574.975290231882,256.476263189485,43.9999999999976));
#455=CARTESIAN_POINT('',(579.975287975906,256.471513480206,43.9999999999976));
#456=VECTOR('',#515,1.0);
#457=CARTESIAN_POINT('',(574.975290231882,256.476263189485,55.9999999999982));
#458=VECTOR('',#516,1.0);
#459=COLOUR_RGB('',0.752941191196442,0.752941191196442,0.752941191196442);
#460=CARTESIAN_POINT('',(476.950795711549,233.815373445413,55.9999999999982));
#461=AXIS2_PLACEMENT_3D('',#517,#518,#519);
#462=AXIS2_PLACEMENT_3D('',#520,#521,#522);
#463=CARTESIAN_POINT('',(517.243511345766,271.53111181532,55.9999999999982));
#464=VECTOR('',#523,1.0);
#465=CARTESIAN_POINT('',(484.885850549721,227.857682864433,55.9999999999982));
#466=AXIS2_PLACEMENT_3D('',#524,#525,#526);
#467=CARTESIAN_POINT('',(522.321073803478,256.52628165612,55.9999999999982));
#468=VECTOR('',#527,1.0);
#469=COLOUR_RGB('',0.752941191196442,0.752941191196442,0.752941191196442);
#470=CARTESIAN_POINT('',(484.885850549721,227.857682864433,43.9999999999976));
#471=CARTESIAN_POINT('',(522.321073803478,256.52628165612,43.9999999999976));
#472=VECTOR('',#528,1.0);
#473=CARTESIAN_POINT('',(484.885850549721,227.857682864433,55.9999999999982));
#474=VECTOR('',#529,1.0);
#475=COLOUR_RGB('',0.752941191196442,0.752941191196442,0.752941191196442);
#476=AXIS2_PLACEMENT_3D('',#530,#531,#532);
#477=COLOUR_RGB('',0.752941191196442,0.752941191196442,0.752941191196442);
#478=CARTESIAN_POINT('',(476.950795711549,233.815373445413,43.9999999999976));
#479=AXIS2_PLACEMENT_3D('',#533,#534,#535);
#480=COLOUR_RGB('',0.752941191196442,0.752941191196442,0.752941191196442);
#481=CARTESIAN_POINT('',(517.243511345766,271.53111181532,43.9999999999976));
#482=VECTOR('',#536,1.0);
#483=COLOUR_RGB('',0.752941191196442,0.752941191196442,0.752941191196442);
#484=AXIS2_PLACEMENT_3D('',#537,#538,#539);
#485=COLOUR_RGB('',0.752941191196442,0.752941191196442,0.752941191196442);
#486=CARTESIAN_POINT('',(569.989541615695,271.481006130835,49.9999999999979));
#487=DIRECTION('',(0.000949941855758208,0.999999548805134,-5.04961758786274E-023));
#488=DIRECTION('',(-1.38778574241496E-017,1.31326673849579E-020,-1.0));
#489=CARTESIAN_POINT('',(569.975292487858,256.481012898764,49.9999999999979));
#490=DIRECTION('',(0.000949941855758208,0.999999548805134,-5.04961758786274E-023));
#491=DIRECTION('',(1.38778574241496E-017,-1.31326673849579E-020,1.0));
#492=CARTESIAN_POINT('',(529.989559663504,271.519003805065,49.9999999999979));
#493=DIRECTION('',(0.000949941855758208,0.999999548805134,-5.04961758786274E-023));
#494=DIRECTION('',(-1.38778574241496E-017,1.31326673849579E-020,-1.0));
#495=CARTESIAN_POINT('',(529.975310535668,256.519010572994,49.9999999999979));
#496=DIRECTION('',(0.000949941855758208,0.999999548805134,-5.04961758786274E-023));
#497=DIRECTION('',(1.38778574241496E-017,-1.31326673849579E-020,1.0));
#498=DIRECTION('',(-0.000949941855758147,-0.999999548805134,5.04961758777805E-023));
#499=DIRECTION('',(-1.38778574241496E-017,1.3132667384958E-020,-1.0));
#500=DIRECTION('',(-0.000949941855758147,-0.999999548805134,5.04961758777805E-023));
#501=DIRECTION('',(-1.38778574241496E-017,1.3132667384958E-020,-1.0));
#502=CARTESIAN_POINT('',(524.013594622715,251.524671603054,55.9999999999982));
#503=DIRECTION('',(-1.38778574241496E-017,1.3132667384958E-020,-1.0));
#504=DIRECTION('',(-0.999999548805133,0.000949941855758208,1.3877863637802E-017));
#505=DIRECTION('',(-1.38778574241496E-017,1.3132667384958E-020,-1.0));
#506=CARTESIAN_POINT('',(524.013594622715,251.524671603054,43.9999999999976));
#507=DIRECTION('',(-1.38778574241496E-017,1.3132667384958E-020,-1.0));
#508=DIRECTION('',(-0.999999548805133,0.000949941855758208,1.3877863637802E-017));
#509=DIRECTION('',(-1.38778574241496E-017,1.3132667384958E-020,-1.0));
#510=DIRECTION('',(0.79393127029588,0.608007514794324,-1.10100802132809E-017));
#511=DIRECTION('',(-1.38778574241496E-017,1.3132667384958E-020,-1.0));
#512=DIRECTION('',(0.79393127029588,0.608007514794324,-1.10100802132809E-017));
#513=DIRECTION('',(-1.38778574241496E-017,1.3132667384958E-020,-1.0));
#514=DIRECTION('',(-0.999999548805134,0.000949941855758208,1.38778636378021E-017));
#515=DIRECTION('',(-0.999999548805134,0.000949941855758208,1.38778636378021E-017));
#516=DIRECTION('',(-1.38778574241496E-017,1.3132667384958E-020,-1.0));
#517=CARTESIAN_POINT('',(480.325794188765,233.812167391649,55.9999999999982));
#518=DIRECTION('',(-1.38778574241496E-017,1.3132667384958E-020,-1.0));
#519=DIRECTION('',(-0.999999548805134,0.000949941855758208,1.3877863637802E-017));
#520=CARTESIAN_POINT('',(574.980039941161,261.476260933509,55.9999999999982));
#521=DIRECTION('',(-1.38778574241496E-017,1.3132667384958E-020,-1.0));
#522=DIRECTION('',(-0.999999548805133,0.000949941855758208,1.3877863637802E-017));
#523=DIRECTION('',(0.999999548805134,-0.000949941855758208,-1.38778636378021E-017));
#524=CARTESIAN_POINT('',(480.325794188765,233.812167391649,55.9999999999982));
#525=DIRECTION('',(-1.38778574241496E-017,1.3132667384958E-020,-1.0));
#526=DIRECTION('',(-0.999999548805134,0.000949941855758208,1.3877863637802E-017));
#527=DIRECTION('',(-0.79393127029588,-0.608007514794324,1.10100802132809E-017));
#528=DIRECTION('',(-0.79393127029588,-0.608007514794324,1.10100802132809E-017));
#529=DIRECTION('',(-1.38778574241496E-017,1.3132667384958E-020,-1.0));
#530=CARTESIAN_POINT('',(480.325794188765,233.812167391649,43.9999999999976));
#531=DIRECTION('',(-1.38778574241496E-017,1.3132667384958E-020,-1.0));
#532=DIRECTION('',(-0.999999548805134,0.000949941855758208,1.3877863637802E-017));
#533=CARTESIAN_POINT('',(480.325794188765,233.812167391649,43.9999999999976));
#534=DIRECTION('',(1.38778574241496E-017,-1.3132667384958E-020,1.0));
#535=DIRECTION('',(-0.999999548805134,0.000949941855758208,1.3877863637802E-017));
#536=DIRECTION('',(0.999999548805134,-0.000949941855758208,-1.38778636378021E-017));
#537=CARTESIAN_POINT('',(574.980039941161,261.476260933509,43.9999999999976));
#538=DIRECTION('',(-1.38778574241496E-017,1.3132667384958E-020,-1.0));
#539=DIRECTION('',(-0.999999548805133,0.000949941855758208,1.3877863637802E-017));
#540=PRESENTATION_LAYER_ASSIGNMENT('13','',(#64));
ENDSEC;
END-ISO-10303-21;
