ISO-10303-21;
HEADER;
/* Generated by software containing ST-Developer
 * from STEP Tools, Inc. (www.steptools.com) 
 */

FILE_DESCRIPTION(
/* description */ (''),
/* implementation_level */ '2;1');

FILE_NAME(
/* name */ 'C:/Users/diodon/Desktop/Embout_pompe.step',
/* time_stamp */ '2018-07-17T17:25:38+02:00',
/* author */ ('maxime.dubernardVDA7Y'),
/* organization */ (''),
/* preprocessor_version */ 'ST-DEVELOPER v17',
/* originating_system */ 'Autodesk Translation Framework v7.1.0.215',
/* authorisation */ '');

FILE_SCHEMA (('AUTOMOTIVE_DESIGN { 1 0 10303 214 3 1 1 }'));
ENDSEC;

DATA;
#10=MECHANICAL_DESIGN_GEOMETRIC_PRESENTATION_REPRESENTATION('',(#13),#622);
#11=SHAPE_REPRESENTATION_RELATIONSHIP('SRR','None',#629,#12);
#12=ADVANCED_BREP_SHAPE_REPRESENTATION('',(#14),#621);
#13=STYLED_ITEM('',(#638),#14);
#14=MANIFOLD_SOLID_BREP('Embout',#342);
#15=ELLIPSE('',#378,14.142135623731,10.);
#16=ELLIPSE('',#379,14.142135623731,10.);
#17=ELLIPSE('',#381,14.1421356237309,10.);
#18=ELLIPSE('',#383,14.1421356237309,10.);
#19=ELLIPSE('',#384,14.142135623731,10.);
#20=ELLIPSE('',#387,14.1421356237309,10.);
#21=ELLIPSE('',#389,14.142135623731,10.);
#22=ELLIPSE('',#392,14.1421356237309,10.);
#23=CYLINDRICAL_SURFACE('',#370,1.5);
#24=CYLINDRICAL_SURFACE('',#380,10.);
#25=CYLINDRICAL_SURFACE('',#393,10.);
#26=CYLINDRICAL_SURFACE('',#397,8.);
#27=CYLINDRICAL_SURFACE('',#401,8.5);
#28=FACE_BOUND('',#110,.T.);
#29=FACE_BOUND('',#114,.T.);
#30=FACE_BOUND('',#117,.T.);
#31=FACE_BOUND('',#127,.T.);
#32=FACE_BOUND('',#132,.T.);
#33=PLANE('',#364);
#34=PLANE('',#372);
#35=PLANE('',#376);
#36=PLANE('',#377);
#37=PLANE('',#385);
#38=PLANE('',#386);
#39=PLANE('',#388);
#40=PLANE('',#390);
#41=PLANE('',#391);
#42=PLANE('',#395);
#43=PLANE('',#403);
#44=LINE('',#534,#63);
#45=LINE('',#539,#64);
#46=LINE('',#543,#65);
#47=LINE('',#549,#66);
#48=LINE('',#553,#67);
#49=LINE('',#561,#68);
#50=LINE('',#568,#69);
#51=LINE('',#571,#70);
#52=LINE('',#579,#71);
#53=LINE('',#583,#72);
#54=LINE('',#584,#73);
#55=LINE('',#588,#74);
#56=LINE('',#592,#75);
#57=LINE('',#595,#76);
#58=LINE('',#596,#77);
#59=LINE('',#599,#78);
#60=LINE('',#608,#79);
#61=LINE('',#613,#80);
#62=LINE('',#617,#81);
#63=VECTOR('',#420,7.);
#64=VECTOR('',#425,10.);
#65=VECTOR('',#428,10.);
#66=VECTOR('',#435,1.6);
#67=VECTOR('',#440,1.5);
#68=VECTOR('',#451,1.6);
#69=VECTOR('',#460,10.);
#70=VECTOR('',#463,10.);
#71=VECTOR('',#470,10.);
#72=VECTOR('',#475,10.);
#73=VECTOR('',#476,10.);
#74=VECTOR('',#481,10.);
#75=VECTOR('',#486,10.);
#76=VECTOR('',#489,10.);
#77=VECTOR('',#490,10.);
#78=VECTOR('',#493,10.);
#79=VECTOR('',#506,8.);
#80=VECTOR('',#513,8.5);
#81=VECTOR('',#518,9.);
#82=CONICAL_SURFACE('',#361,7.,0.135527713985501);
#83=CONICAL_SURFACE('',#367,1.6,0.785398163397449);
#84=CONICAL_SURFACE('',#374,1.6,0.785398163397448);
#85=CONICAL_SURFACE('',#399,8.5,0.785398163397448);
#86=FACE_OUTER_BOUND('',#107,.T.);
#87=FACE_OUTER_BOUND('',#108,.T.);
#88=FACE_OUTER_BOUND('',#109,.T.);
#89=FACE_OUTER_BOUND('',#111,.T.);
#90=FACE_OUTER_BOUND('',#112,.T.);
#91=FACE_OUTER_BOUND('',#113,.T.);
#92=FACE_OUTER_BOUND('',#115,.T.);
#93=FACE_OUTER_BOUND('',#116,.T.);
#94=FACE_OUTER_BOUND('',#118,.T.);
#95=FACE_OUTER_BOUND('',#119,.T.);
#96=FACE_OUTER_BOUND('',#120,.T.);
#97=FACE_OUTER_BOUND('',#121,.T.);
#98=FACE_OUTER_BOUND('',#122,.T.);
#99=FACE_OUTER_BOUND('',#123,.T.);
#100=FACE_OUTER_BOUND('',#124,.T.);
#101=FACE_OUTER_BOUND('',#125,.T.);
#102=FACE_OUTER_BOUND('',#126,.T.);
#103=FACE_OUTER_BOUND('',#128,.T.);
#104=FACE_OUTER_BOUND('',#129,.T.);
#105=FACE_OUTER_BOUND('',#130,.T.);
#106=FACE_OUTER_BOUND('',#131,.T.);
#107=EDGE_LOOP('',(#228,#229,#230,#231,#232));
#108=EDGE_LOOP('',(#233,#234,#235,#236,#237,#238));
#109=EDGE_LOOP('',(#239,#240,#241,#242));
#110=EDGE_LOOP('',(#243));
#111=EDGE_LOOP('',(#244,#245,#246,#247));
#112=EDGE_LOOP('',(#248,#249,#250,#251));
#113=EDGE_LOOP('',(#252));
#114=EDGE_LOOP('',(#253));
#115=EDGE_LOOP('',(#254,#255,#256,#257));
#116=EDGE_LOOP('',(#258,#259));
#117=EDGE_LOOP('',(#260));
#118=EDGE_LOOP('',(#261,#262,#263,#264));
#119=EDGE_LOOP('',(#265,#266,#267,#268,#269,#270,#271,#272));
#120=EDGE_LOOP('',(#273,#274,#275,#276));
#121=EDGE_LOOP('',(#277,#278,#279,#280));
#122=EDGE_LOOP('',(#281,#282,#283,#284));
#123=EDGE_LOOP('',(#285,#286,#287,#288));
#124=EDGE_LOOP('',(#289,#290,#291,#292));
#125=EDGE_LOOP('',(#293,#294,#295,#296,#297,#298,#299,#300));
#126=EDGE_LOOP('',(#301,#302,#303,#304));
#127=EDGE_LOOP('',(#305));
#128=EDGE_LOOP('',(#306,#307,#308,#309));
#129=EDGE_LOOP('',(#310,#311,#312,#313));
#130=EDGE_LOOP('',(#314,#315,#316,#317));
#131=EDGE_LOOP('',(#318));
#132=EDGE_LOOP('',(#319));
#133=CIRCLE('',#357,6.88206089155454);
#134=CIRCLE('',#358,6.88206089155454);
#135=CIRCLE('',#359,1.);
#136=CIRCLE('',#360,7.87289105959884);
#137=CIRCLE('',#362,4.);
#138=CIRCLE('',#363,4.);
#139=CIRCLE('',#365,10.);
#140=CIRCLE('',#366,10.);
#141=CIRCLE('',#368,1.7);
#142=CIRCLE('',#369,1.5);
#143=CIRCLE('',#371,1.5);
#144=CIRCLE('',#373,8.);
#145=CIRCLE('',#375,1.7);
#146=CIRCLE('',#382,10.);
#147=CIRCLE('',#394,10.);
#148=CIRCLE('',#396,8.);
#149=CIRCLE('',#398,8.);
#150=CIRCLE('',#400,8.5);
#151=CIRCLE('',#402,8.5);
#152=VERTEX_POINT('',#523);
#153=VERTEX_POINT('',#524);
#154=VERTEX_POINT('',#527);
#155=VERTEX_POINT('',#531);
#156=VERTEX_POINT('',#532);
#157=VERTEX_POINT('',#537);
#158=VERTEX_POINT('',#538);
#159=VERTEX_POINT('',#540);
#160=VERTEX_POINT('',#542);
#161=VERTEX_POINT('',#546);
#162=VERTEX_POINT('',#548);
#163=VERTEX_POINT('',#552);
#164=VERTEX_POINT('',#556);
#165=VERTEX_POINT('',#559);
#166=VERTEX_POINT('',#564);
#167=VERTEX_POINT('',#566);
#168=VERTEX_POINT('',#570);
#169=VERTEX_POINT('',#572);
#170=VERTEX_POINT('',#574);
#171=VERTEX_POINT('',#576);
#172=VERTEX_POINT('',#578);
#173=VERTEX_POINT('',#582);
#174=VERTEX_POINT('',#586);
#175=VERTEX_POINT('',#590);
#176=VERTEX_POINT('',#594);
#177=VERTEX_POINT('',#598);
#178=VERTEX_POINT('',#604);
#179=VERTEX_POINT('',#607);
#180=VERTEX_POINT('',#611);
#181=VERTEX_POINT('',#615);
#182=EDGE_CURVE('',#152,#153,#133,.T.);
#183=EDGE_CURVE('',#153,#152,#134,.T.);
#184=EDGE_CURVE('',#152,#154,#135,.T.);
#185=EDGE_CURVE('',#154,#154,#136,.T.);
#186=EDGE_CURVE('',#155,#156,#137,.T.);
#187=EDGE_CURVE('',#156,#153,#44,.T.);
#188=EDGE_CURVE('',#156,#155,#138,.T.);
#189=EDGE_CURVE('',#157,#158,#45,.T.);
#190=EDGE_CURVE('',#157,#159,#139,.T.);
#191=EDGE_CURVE('',#160,#159,#46,.T.);
#192=EDGE_CURVE('',#160,#158,#140,.T.);
#193=EDGE_CURVE('',#161,#161,#141,.T.);
#194=EDGE_CURVE('',#161,#162,#47,.T.);
#195=EDGE_CURVE('',#162,#162,#142,.T.);
#196=EDGE_CURVE('',#162,#163,#48,.T.);
#197=EDGE_CURVE('',#163,#163,#143,.T.);
#198=EDGE_CURVE('',#164,#164,#144,.T.);
#199=EDGE_CURVE('',#165,#165,#145,.T.);
#200=EDGE_CURVE('',#165,#163,#49,.T.);
#201=EDGE_CURVE('',#166,#157,#15,.T.);
#202=EDGE_CURVE('',#158,#167,#16,.T.);
#203=EDGE_CURVE('',#167,#166,#50,.T.);
#204=EDGE_CURVE('',#166,#168,#51,.T.);
#205=EDGE_CURVE('',#169,#168,#17,.T.);
#206=EDGE_CURVE('',#169,#170,#146,.T.);
#207=EDGE_CURVE('',#171,#170,#18,.T.);
#208=EDGE_CURVE('',#171,#172,#52,.T.);
#209=EDGE_CURVE('',#159,#172,#19,.T.);
#210=EDGE_CURVE('',#173,#167,#53,.T.);
#211=EDGE_CURVE('',#168,#173,#54,.T.);
#212=EDGE_CURVE('',#173,#174,#20,.T.);
#213=EDGE_CURVE('',#174,#169,#55,.T.);
#214=EDGE_CURVE('',#175,#160,#21,.T.);
#215=EDGE_CURVE('',#172,#175,#56,.T.);
#216=EDGE_CURVE('',#176,#171,#57,.T.);
#217=EDGE_CURVE('',#175,#176,#58,.T.);
#218=EDGE_CURVE('',#170,#177,#59,.T.);
#219=EDGE_CURVE('',#177,#176,#22,.T.);
#220=EDGE_CURVE('',#177,#174,#147,.T.);
#221=EDGE_CURVE('',#178,#178,#148,.T.);
#222=EDGE_CURVE('',#178,#179,#60,.T.);
#223=EDGE_CURVE('',#179,#179,#149,.T.);
#224=EDGE_CURVE('',#180,#180,#150,.F.);
#225=EDGE_CURVE('',#180,#164,#61,.T.);
#226=EDGE_CURVE('',#181,#181,#151,.F.);
#227=EDGE_CURVE('',#181,#180,#62,.T.);
#228=ORIENTED_EDGE('',*,*,#182,.T.);
#229=ORIENTED_EDGE('',*,*,#183,.T.);
#230=ORIENTED_EDGE('',*,*,#184,.T.);
#231=ORIENTED_EDGE('',*,*,#185,.T.);
#232=ORIENTED_EDGE('',*,*,#184,.F.);
#233=ORIENTED_EDGE('',*,*,#186,.T.);
#234=ORIENTED_EDGE('',*,*,#187,.T.);
#235=ORIENTED_EDGE('',*,*,#182,.F.);
#236=ORIENTED_EDGE('',*,*,#183,.F.);
#237=ORIENTED_EDGE('',*,*,#187,.F.);
#238=ORIENTED_EDGE('',*,*,#188,.T.);
#239=ORIENTED_EDGE('',*,*,#189,.F.);
#240=ORIENTED_EDGE('',*,*,#190,.T.);
#241=ORIENTED_EDGE('',*,*,#191,.F.);
#242=ORIENTED_EDGE('',*,*,#192,.T.);
#243=ORIENTED_EDGE('',*,*,#185,.F.);
#244=ORIENTED_EDGE('',*,*,#193,.T.);
#245=ORIENTED_EDGE('',*,*,#194,.T.);
#246=ORIENTED_EDGE('',*,*,#195,.T.);
#247=ORIENTED_EDGE('',*,*,#194,.F.);
#248=ORIENTED_EDGE('',*,*,#195,.F.);
#249=ORIENTED_EDGE('',*,*,#196,.T.);
#250=ORIENTED_EDGE('',*,*,#197,.F.);
#251=ORIENTED_EDGE('',*,*,#196,.F.);
#252=ORIENTED_EDGE('',*,*,#198,.F.);
#253=ORIENTED_EDGE('',*,*,#193,.F.);
#254=ORIENTED_EDGE('',*,*,#199,.T.);
#255=ORIENTED_EDGE('',*,*,#200,.T.);
#256=ORIENTED_EDGE('',*,*,#197,.T.);
#257=ORIENTED_EDGE('',*,*,#200,.F.);
#258=ORIENTED_EDGE('',*,*,#186,.F.);
#259=ORIENTED_EDGE('',*,*,#188,.F.);
#260=ORIENTED_EDGE('',*,*,#199,.F.);
#261=ORIENTED_EDGE('',*,*,#201,.T.);
#262=ORIENTED_EDGE('',*,*,#189,.T.);
#263=ORIENTED_EDGE('',*,*,#202,.T.);
#264=ORIENTED_EDGE('',*,*,#203,.T.);
#265=ORIENTED_EDGE('',*,*,#201,.F.);
#266=ORIENTED_EDGE('',*,*,#204,.T.);
#267=ORIENTED_EDGE('',*,*,#205,.F.);
#268=ORIENTED_EDGE('',*,*,#206,.T.);
#269=ORIENTED_EDGE('',*,*,#207,.F.);
#270=ORIENTED_EDGE('',*,*,#208,.T.);
#271=ORIENTED_EDGE('',*,*,#209,.F.);
#272=ORIENTED_EDGE('',*,*,#190,.F.);
#273=ORIENTED_EDGE('',*,*,#203,.F.);
#274=ORIENTED_EDGE('',*,*,#210,.F.);
#275=ORIENTED_EDGE('',*,*,#211,.F.);
#276=ORIENTED_EDGE('',*,*,#204,.F.);
#277=ORIENTED_EDGE('',*,*,#212,.T.);
#278=ORIENTED_EDGE('',*,*,#213,.T.);
#279=ORIENTED_EDGE('',*,*,#205,.T.);
#280=ORIENTED_EDGE('',*,*,#211,.T.);
#281=ORIENTED_EDGE('',*,*,#214,.T.);
#282=ORIENTED_EDGE('',*,*,#191,.T.);
#283=ORIENTED_EDGE('',*,*,#209,.T.);
#284=ORIENTED_EDGE('',*,*,#215,.T.);
#285=ORIENTED_EDGE('',*,*,#215,.F.);
#286=ORIENTED_EDGE('',*,*,#208,.F.);
#287=ORIENTED_EDGE('',*,*,#216,.F.);
#288=ORIENTED_EDGE('',*,*,#217,.F.);
#289=ORIENTED_EDGE('',*,*,#207,.T.);
#290=ORIENTED_EDGE('',*,*,#218,.T.);
#291=ORIENTED_EDGE('',*,*,#219,.T.);
#292=ORIENTED_EDGE('',*,*,#216,.T.);
#293=ORIENTED_EDGE('',*,*,#202,.F.);
#294=ORIENTED_EDGE('',*,*,#192,.F.);
#295=ORIENTED_EDGE('',*,*,#214,.F.);
#296=ORIENTED_EDGE('',*,*,#217,.T.);
#297=ORIENTED_EDGE('',*,*,#219,.F.);
#298=ORIENTED_EDGE('',*,*,#220,.T.);
#299=ORIENTED_EDGE('',*,*,#212,.F.);
#300=ORIENTED_EDGE('',*,*,#210,.T.);
#301=ORIENTED_EDGE('',*,*,#213,.F.);
#302=ORIENTED_EDGE('',*,*,#220,.F.);
#303=ORIENTED_EDGE('',*,*,#218,.F.);
#304=ORIENTED_EDGE('',*,*,#206,.F.);
#305=ORIENTED_EDGE('',*,*,#221,.T.);
#306=ORIENTED_EDGE('',*,*,#221,.F.);
#307=ORIENTED_EDGE('',*,*,#222,.T.);
#308=ORIENTED_EDGE('',*,*,#223,.F.);
#309=ORIENTED_EDGE('',*,*,#222,.F.);
#310=ORIENTED_EDGE('',*,*,#224,.T.);
#311=ORIENTED_EDGE('',*,*,#225,.T.);
#312=ORIENTED_EDGE('',*,*,#198,.T.);
#313=ORIENTED_EDGE('',*,*,#225,.F.);
#314=ORIENTED_EDGE('',*,*,#226,.F.);
#315=ORIENTED_EDGE('',*,*,#227,.T.);
#316=ORIENTED_EDGE('',*,*,#224,.F.);
#317=ORIENTED_EDGE('',*,*,#227,.F.);
#318=ORIENTED_EDGE('',*,*,#226,.T.);
#319=ORIENTED_EDGE('',*,*,#223,.T.);
#320=TOROIDAL_SURFACE('',#356,7.87289105959884,1.);
#321=ADVANCED_FACE('',(#86),#320,.F.);
#322=ADVANCED_FACE('',(#87),#82,.T.);
#323=ADVANCED_FACE('',(#88,#28),#33,.T.);
#324=ADVANCED_FACE('',(#89),#83,.F.);
#325=ADVANCED_FACE('',(#90),#23,.F.);
#326=ADVANCED_FACE('',(#91,#29),#34,.F.);
#327=ADVANCED_FACE('',(#92),#84,.F.);
#328=ADVANCED_FACE('',(#93,#30),#35,.F.);
#329=ADVANCED_FACE('',(#94),#36,.T.);
#330=ADVANCED_FACE('',(#95),#24,.T.);
#331=ADVANCED_FACE('',(#96),#37,.F.);
#332=ADVANCED_FACE('',(#97),#38,.T.);
#333=ADVANCED_FACE('',(#98),#39,.T.);
#334=ADVANCED_FACE('',(#99),#40,.F.);
#335=ADVANCED_FACE('',(#100),#41,.T.);
#336=ADVANCED_FACE('',(#101),#25,.T.);
#337=ADVANCED_FACE('',(#102,#31),#42,.F.);
#338=ADVANCED_FACE('',(#103),#26,.T.);
#339=ADVANCED_FACE('',(#104),#85,.T.);
#340=ADVANCED_FACE('',(#105),#27,.T.);
#341=ADVANCED_FACE('',(#106,#32),#43,.T.);
#342=CLOSED_SHELL('',(#321,#322,#323,#324,#325,#326,#327,#328,#329,#330,
#331,#332,#333,#334,#335,#336,#337,#338,#339,#340,#341));
#343=DERIVED_UNIT_ELEMENT(#345,1.);
#344=DERIVED_UNIT_ELEMENT(#624,3.);
#345=(
MASS_UNIT()
NAMED_UNIT(*)
SI_UNIT(.KILO.,.GRAM.)
);
#346=DERIVED_UNIT((#343,#344));
#347=MEASURE_REPRESENTATION_ITEM('density measure',
POSITIVE_RATIO_MEASURE(7850.),#346);
#348=PROPERTY_DEFINITION_REPRESENTATION(#353,#350);
#349=PROPERTY_DEFINITION_REPRESENTATION(#354,#351);
#350=REPRESENTATION('material name',(#352),#621);
#351=REPRESENTATION('density',(#347),#621);
#352=DESCRIPTIVE_REPRESENTATION_ITEM('Steel','Steel');
#353=PROPERTY_DEFINITION('material property','material name',#631);
#354=PROPERTY_DEFINITION('material property','density of part',#631);
#355=AXIS2_PLACEMENT_3D('placement',#521,#404,#405);
#356=AXIS2_PLACEMENT_3D('',#522,#406,#407);
#357=AXIS2_PLACEMENT_3D('',#525,#408,#409);
#358=AXIS2_PLACEMENT_3D('',#526,#410,#411);
#359=AXIS2_PLACEMENT_3D('',#528,#412,#413);
#360=AXIS2_PLACEMENT_3D('',#529,#414,#415);
#361=AXIS2_PLACEMENT_3D('',#530,#416,#417);
#362=AXIS2_PLACEMENT_3D('',#533,#418,#419);
#363=AXIS2_PLACEMENT_3D('',#535,#421,#422);
#364=AXIS2_PLACEMENT_3D('',#536,#423,#424);
#365=AXIS2_PLACEMENT_3D('',#541,#426,#427);
#366=AXIS2_PLACEMENT_3D('',#544,#429,#430);
#367=AXIS2_PLACEMENT_3D('',#545,#431,#432);
#368=AXIS2_PLACEMENT_3D('',#547,#433,#434);
#369=AXIS2_PLACEMENT_3D('',#550,#436,#437);
#370=AXIS2_PLACEMENT_3D('',#551,#438,#439);
#371=AXIS2_PLACEMENT_3D('',#554,#441,#442);
#372=AXIS2_PLACEMENT_3D('',#555,#443,#444);
#373=AXIS2_PLACEMENT_3D('',#557,#445,#446);
#374=AXIS2_PLACEMENT_3D('',#558,#447,#448);
#375=AXIS2_PLACEMENT_3D('',#560,#449,#450);
#376=AXIS2_PLACEMENT_3D('',#562,#452,#453);
#377=AXIS2_PLACEMENT_3D('',#563,#454,#455);
#378=AXIS2_PLACEMENT_3D('',#565,#456,#457);
#379=AXIS2_PLACEMENT_3D('',#567,#458,#459);
#380=AXIS2_PLACEMENT_3D('',#569,#461,#462);
#381=AXIS2_PLACEMENT_3D('',#573,#464,#465);
#382=AXIS2_PLACEMENT_3D('',#575,#466,#467);
#383=AXIS2_PLACEMENT_3D('',#577,#468,#469);
#384=AXIS2_PLACEMENT_3D('',#580,#471,#472);
#385=AXIS2_PLACEMENT_3D('',#581,#473,#474);
#386=AXIS2_PLACEMENT_3D('',#585,#477,#478);
#387=AXIS2_PLACEMENT_3D('',#587,#479,#480);
#388=AXIS2_PLACEMENT_3D('',#589,#482,#483);
#389=AXIS2_PLACEMENT_3D('',#591,#484,#485);
#390=AXIS2_PLACEMENT_3D('',#593,#487,#488);
#391=AXIS2_PLACEMENT_3D('',#597,#491,#492);
#392=AXIS2_PLACEMENT_3D('',#600,#494,#495);
#393=AXIS2_PLACEMENT_3D('',#601,#496,#497);
#394=AXIS2_PLACEMENT_3D('',#602,#498,#499);
#395=AXIS2_PLACEMENT_3D('',#603,#500,#501);
#396=AXIS2_PLACEMENT_3D('',#605,#502,#503);
#397=AXIS2_PLACEMENT_3D('',#606,#504,#505);
#398=AXIS2_PLACEMENT_3D('',#609,#507,#508);
#399=AXIS2_PLACEMENT_3D('',#610,#509,#510);
#400=AXIS2_PLACEMENT_3D('',#612,#511,#512);
#401=AXIS2_PLACEMENT_3D('',#614,#514,#515);
#402=AXIS2_PLACEMENT_3D('',#616,#516,#517);
#403=AXIS2_PLACEMENT_3D('',#618,#519,#520);
#404=DIRECTION('axis',(0.,0.,1.));
#405=DIRECTION('refdir',(1.,0.,0.));
#406=DIRECTION('center_axis',(-1.,0.,0.));
#407=DIRECTION('ref_axis',(0.,0.,1.));
#408=DIRECTION('center_axis',(-1.,0.,0.));
#409=DIRECTION('ref_axis',(0.,-1.22464679914735E-16,1.));
#410=DIRECTION('center_axis',(-1.,0.,0.));
#411=DIRECTION('ref_axis',(0.,-1.22464679914735E-16,1.));
#412=DIRECTION('center_axis',(0.,-1.,1.22464679914735E-16));
#413=DIRECTION('ref_axis',(0.,-1.22464679914735E-16,-1.));
#414=DIRECTION('center_axis',(1.,0.,0.));
#415=DIRECTION('ref_axis',(0.,-1.22464679914735E-16,1.));
#416=DIRECTION('center_axis',(-1.,0.,0.));
#417=DIRECTION('ref_axis',(0.,0.,-1.));
#418=DIRECTION('center_axis',(-1.,0.,0.));
#419=DIRECTION('ref_axis',(0.,0.,-1.));
#420=DIRECTION('',(-0.990830168044299,-1.65465953699193E-17,0.135113204733314));
#421=DIRECTION('center_axis',(-1.,0.,0.));
#422=DIRECTION('ref_axis',(0.,0.,-1.));
#423=DIRECTION('center_axis',(1.,0.,0.));
#424=DIRECTION('ref_axis',(0.,0.,-1.));
#425=DIRECTION('',(0.,0.,1.));
#426=DIRECTION('center_axis',(1.,0.,0.));
#427=DIRECTION('ref_axis',(0.,0.,-1.));
#428=DIRECTION('',(0.,0.,-1.));
#429=DIRECTION('center_axis',(1.,0.,0.));
#430=DIRECTION('ref_axis',(0.,0.,-1.));
#431=DIRECTION('center_axis',(-1.,0.,0.));
#432=DIRECTION('ref_axis',(0.,0.,1.));
#433=DIRECTION('center_axis',(-1.,0.,0.));
#434=DIRECTION('ref_axis',(0.,0.,1.));
#435=DIRECTION('',(0.707106781186547,8.65956056235494E-17,0.707106781186548));
#436=DIRECTION('center_axis',(1.,0.,0.));
#437=DIRECTION('ref_axis',(0.,0.,1.));
#438=DIRECTION('center_axis',(1.,0.,0.));
#439=DIRECTION('ref_axis',(0.,0.,1.));
#440=DIRECTION('',(1.,0.,0.));
#441=DIRECTION('center_axis',(-1.,0.,0.));
#442=DIRECTION('ref_axis',(0.,0.,1.));
#443=DIRECTION('center_axis',(1.,0.,0.));
#444=DIRECTION('ref_axis',(0.,0.,-1.));
#445=DIRECTION('center_axis',(1.,0.,0.));
#446=DIRECTION('ref_axis',(0.,0.,-1.));
#447=DIRECTION('center_axis',(1.,0.,0.));
#448=DIRECTION('ref_axis',(0.,0.,1.));
#449=DIRECTION('center_axis',(1.,0.,0.));
#450=DIRECTION('ref_axis',(0.,0.,1.));
#451=DIRECTION('',(-0.707106781186548,-8.65956056235493E-17,0.707106781186548));
#452=DIRECTION('center_axis',(-1.,0.,0.));
#453=DIRECTION('ref_axis',(0.,0.,1.));
#454=DIRECTION('center_axis',(0.707106781186546,-0.707106781186549,0.));
#455=DIRECTION('ref_axis',(0.,0.,-1.));
#456=DIRECTION('center_axis',(0.707106781186546,-0.707106781186549,0.));
#457=DIRECTION('ref_axis',(0.707106781186549,0.707106781186546,0.));
#458=DIRECTION('center_axis',(0.707106781186546,-0.707106781186549,0.));
#459=DIRECTION('ref_axis',(0.707106781186549,0.707106781186546,0.));
#460=DIRECTION('',(0.,0.,-1.));
#461=DIRECTION('center_axis',(1.,0.,0.));
#462=DIRECTION('ref_axis',(0.,0.,-1.));
#463=DIRECTION('',(-1.,0.,0.));
#464=DIRECTION('center_axis',(-0.707106781186549,-0.707106781186546,0.));
#465=DIRECTION('ref_axis',(-0.707106781186546,0.707106781186549,0.));
#466=DIRECTION('center_axis',(1.,0.,0.));
#467=DIRECTION('ref_axis',(0.,0.,-1.));
#468=DIRECTION('center_axis',(-0.707106781186549,0.707106781186546,0.));
#469=DIRECTION('ref_axis',(0.707106781186546,0.707106781186549,0.));
#470=DIRECTION('',(1.,0.,0.));
#471=DIRECTION('center_axis',(0.707106781186546,0.707106781186549,0.));
#472=DIRECTION('ref_axis',(-0.707106781186549,0.707106781186546,0.));
#473=DIRECTION('center_axis',(0.,1.,0.));
#474=DIRECTION('ref_axis',(0.,0.,1.));
#475=DIRECTION('',(1.,0.,0.));
#476=DIRECTION('',(0.,0.,1.));
#477=DIRECTION('center_axis',(-0.707106781186549,-0.707106781186546,0.));
#478=DIRECTION('ref_axis',(0.,0.,1.));
#479=DIRECTION('center_axis',(-0.707106781186549,-0.707106781186546,0.));
#480=DIRECTION('ref_axis',(-0.707106781186546,0.707106781186549,0.));
#481=DIRECTION('',(0.,0.,-1.));
#482=DIRECTION('center_axis',(0.707106781186546,0.707106781186549,0.));
#483=DIRECTION('ref_axis',(0.,0.,-1.));
#484=DIRECTION('center_axis',(0.707106781186546,0.707106781186549,0.));
#485=DIRECTION('ref_axis',(-0.707106781186549,0.707106781186546,0.));
#486=DIRECTION('',(0.,0.,1.));
#487=DIRECTION('center_axis',(0.,-1.,0.));
#488=DIRECTION('ref_axis',(0.,0.,-1.));
#489=DIRECTION('',(0.,0.,-1.));
#490=DIRECTION('',(-1.,0.,0.));
#491=DIRECTION('center_axis',(-0.707106781186549,0.707106781186546,0.));
#492=DIRECTION('ref_axis',(0.,0.,1.));
#493=DIRECTION('',(0.,0.,1.));
#494=DIRECTION('center_axis',(-0.707106781186549,0.707106781186546,0.));
#495=DIRECTION('ref_axis',(0.707106781186546,0.707106781186549,0.));
#496=DIRECTION('center_axis',(1.,0.,0.));
#497=DIRECTION('ref_axis',(0.,-1.22464679914735E-16,1.));
#498=DIRECTION('center_axis',(1.,0.,0.));
#499=DIRECTION('ref_axis',(0.,0.,-1.));
#500=DIRECTION('center_axis',(1.,0.,0.));
#501=DIRECTION('ref_axis',(0.,0.,-1.));
#502=DIRECTION('center_axis',(1.,0.,0.));
#503=DIRECTION('ref_axis',(0.,0.,-1.));
#504=DIRECTION('center_axis',(1.,0.,0.));
#505=DIRECTION('ref_axis',(0.,0.,-1.));
#506=DIRECTION('',(-1.,0.,0.));
#507=DIRECTION('center_axis',(-1.,0.,0.));
#508=DIRECTION('ref_axis',(0.,0.,-1.));
#509=DIRECTION('center_axis',(1.,0.,0.));
#510=DIRECTION('ref_axis',(0.,0.,-1.));
#511=DIRECTION('center_axis',(1.,0.,0.));
#512=DIRECTION('ref_axis',(0.,0.,-1.));
#513=DIRECTION('',(-0.707106781186548,8.65956056235493E-17,-0.707106781186547));
#514=DIRECTION('center_axis',(1.,0.,0.));
#515=DIRECTION('ref_axis',(0.,0.,-1.));
#516=DIRECTION('center_axis',(-1.,0.,0.));
#517=DIRECTION('ref_axis',(0.,0.,-1.));
#518=DIRECTION('',(-1.,0.,0.));
#519=DIRECTION('center_axis',(1.,0.,0.));
#520=DIRECTION('ref_axis',(0.,0.,-1.));
#521=CARTESIAN_POINT('',(0.,0.,0.));
#522=CARTESIAN_POINT('Origin',(18.2,0.,0.));
#523=CARTESIAN_POINT('',(18.0648867952667,0.,-6.88206089155454));
#524=CARTESIAN_POINT('',(18.0648867952667,-8.42809384237945E-16,6.88206089155454));
#525=CARTESIAN_POINT('Origin',(18.0648867952667,0.,0.));
#526=CARTESIAN_POINT('Origin',(18.0648867952667,0.,0.));
#527=CARTESIAN_POINT('',(17.2,1.92830216723471E-15,-7.87289105959884));
#528=CARTESIAN_POINT('Origin',(18.2,-9.64151083617354E-16,-7.87289105959884));
#529=CARTESIAN_POINT('Origin',(17.2,0.,0.));
#530=CARTESIAN_POINT('Origin',(17.2,0.,0.));
#531=CARTESIAN_POINT('',(39.2,0.,-4.));
#532=CARTESIAN_POINT('',(39.2,-4.89858719658941E-16,4.));
#533=CARTESIAN_POINT('Origin',(39.2,0.,0.));
#534=CARTESIAN_POINT('',(17.2,-8.57252759403147E-16,7.));
#535=CARTESIAN_POINT('Origin',(39.2,0.,0.));
#536=CARTESIAN_POINT('Origin',(17.2,0.,0.));
#537=CARTESIAN_POINT('',(17.2,-8.5,-5.26782687642637));
#538=CARTESIAN_POINT('',(17.2,-8.5,5.26782687642637));
#539=CARTESIAN_POINT('',(17.2,-8.5,-2.17944947177034));
#540=CARTESIAN_POINT('',(17.2,8.5,-5.26782687642637));
#541=CARTESIAN_POINT('Origin',(17.2,0.,0.));
#542=CARTESIAN_POINT('',(17.2,8.5,5.26782687642637));
#543=CARTESIAN_POINT('',(17.2,8.5,2.17944947177033));
#544=CARTESIAN_POINT('Origin',(17.2,0.,0.));
#545=CARTESIAN_POINT('Origin',(0.1,0.,0.));
#546=CARTESIAN_POINT('',(0.,-2.0818995585505E-16,-1.7));
#547=CARTESIAN_POINT('Origin',(0.,0.,0.));
#548=CARTESIAN_POINT('',(0.2,1.83697019872103E-16,-1.5));
#549=CARTESIAN_POINT('',(0.1,-1.95943487863577E-16,-1.6));
#550=CARTESIAN_POINT('Origin',(0.2,0.,0.));
#551=CARTESIAN_POINT('Origin',(0.,0.,0.));
#552=CARTESIAN_POINT('',(39.,-1.83697019872103E-16,-1.5));
#553=CARTESIAN_POINT('',(0.,1.83697019872103E-16,-1.5));
#554=CARTESIAN_POINT('Origin',(39.,0.,0.));
#555=CARTESIAN_POINT('Origin',(0.,0.,0.));
#556=CARTESIAN_POINT('',(0.,-9.79717439317883E-16,8.));
#557=CARTESIAN_POINT('Origin',(0.,0.,0.));
#558=CARTESIAN_POINT('Origin',(39.1,0.,0.));
#559=CARTESIAN_POINT('',(39.2,2.0818995585505E-16,-1.7));
#560=CARTESIAN_POINT('Origin',(39.2,0.,0.));
#561=CARTESIAN_POINT('',(39.1,1.95943487863577E-16,-1.6));
#562=CARTESIAN_POINT('Origin',(39.2,0.,0.));
#563=CARTESIAN_POINT('Origin',(16.95,-8.75,-2.17944947177034));
#564=CARTESIAN_POINT('',(16.7,-9.,-4.35889894354067));
#565=CARTESIAN_POINT('Origin',(25.7,0.,0.));
#566=CARTESIAN_POINT('',(16.7,-9.,4.35889894354067));
#567=CARTESIAN_POINT('Origin',(25.7,0.,0.));
#568=CARTESIAN_POINT('',(16.7,-9.,-2.17944947177034));
#569=CARTESIAN_POINT('Origin',(11.2,0.,0.));
#570=CARTESIAN_POINT('',(11.7,-9.,-4.35889894354067));
#571=CARTESIAN_POINT('',(11.2,-9.,-4.35889894354067));
#572=CARTESIAN_POINT('',(11.2,-8.5,-5.26782687642637));
#573=CARTESIAN_POINT('Origin',(2.70000000000004,0.,0.));
#574=CARTESIAN_POINT('',(11.2,8.5,-5.26782687642637));
#575=CARTESIAN_POINT('Origin',(11.2,0.,0.));
#576=CARTESIAN_POINT('',(11.7,9.,-4.35889894354067));
#577=CARTESIAN_POINT('Origin',(2.70000000000004,0.,0.));
#578=CARTESIAN_POINT('',(16.7,9.,-4.35889894354067));
#579=CARTESIAN_POINT('',(11.2,9.,-4.35889894354067));
#580=CARTESIAN_POINT('Origin',(25.7,0.,0.));
#581=CARTESIAN_POINT('Origin',(11.2,-9.,-4.35889894354069));
#582=CARTESIAN_POINT('',(11.7,-9.,4.35889894354067));
#583=CARTESIAN_POINT('',(11.2,-9.,4.35889894354067));
#584=CARTESIAN_POINT('',(11.7,-9.,-2.17944947177034));
#585=CARTESIAN_POINT('Origin',(11.45,-8.75,-2.17944947177034));
#586=CARTESIAN_POINT('',(11.2,-8.5,5.26782687642637));
#587=CARTESIAN_POINT('Origin',(2.70000000000004,0.,0.));
#588=CARTESIAN_POINT('',(11.2,-8.5,-2.17944947177034));
#589=CARTESIAN_POINT('Origin',(16.95,8.75,2.17944947177033));
#590=CARTESIAN_POINT('',(16.7,9.,4.35889894354067));
#591=CARTESIAN_POINT('Origin',(25.7,0.,0.));
#592=CARTESIAN_POINT('',(16.7,9.,2.17944947177033));
#593=CARTESIAN_POINT('Origin',(11.2,9.,4.35889894354067));
#594=CARTESIAN_POINT('',(11.7,9.,4.35889894354067));
#595=CARTESIAN_POINT('',(11.7,9.,2.17944947177033));
#596=CARTESIAN_POINT('',(11.2,9.,4.35889894354067));
#597=CARTESIAN_POINT('Origin',(11.45,8.75,2.17944947177033));
#598=CARTESIAN_POINT('',(11.2,8.5,5.26782687642637));
#599=CARTESIAN_POINT('',(11.2,8.5,2.17944947177033));
#600=CARTESIAN_POINT('Origin',(2.70000000000004,0.,0.));
#601=CARTESIAN_POINT('Origin',(11.2,0.,0.));
#602=CARTESIAN_POINT('Origin',(11.2,0.,0.));
#603=CARTESIAN_POINT('Origin',(11.2,0.,0.));
#604=CARTESIAN_POINT('',(11.2,-9.79717439317883E-16,8.));
#605=CARTESIAN_POINT('Origin',(11.2,0.,0.));
#606=CARTESIAN_POINT('Origin',(10.,0.,0.));
#607=CARTESIAN_POINT('',(10.,-9.79717439317883E-16,8.));
#608=CARTESIAN_POINT('',(10.,-9.79717439317883E-16,8.));
#609=CARTESIAN_POINT('Origin',(10.,0.,0.));
#610=CARTESIAN_POINT('Origin',(0.5,0.,0.));
#611=CARTESIAN_POINT('',(0.5,-1.04094977927525E-15,8.5));
#612=CARTESIAN_POINT('Origin',(0.5,0.,0.));
#613=CARTESIAN_POINT('',(0.5,-1.04094977927525E-15,8.5));
#614=CARTESIAN_POINT('Origin',(0.,0.,0.));
#615=CARTESIAN_POINT('',(10.,1.04094977927525E-15,8.5));
#616=CARTESIAN_POINT('Origin',(10.,0.,0.));
#617=CARTESIAN_POINT('',(0.,-1.04094977927525E-15,8.5));
#618=CARTESIAN_POINT('Origin',(10.,0.,0.));
#619=UNCERTAINTY_MEASURE_WITH_UNIT(LENGTH_MEASURE(0.01),#623,
'DISTANCE_ACCURACY_VALUE',
'Maximum model space distance between geometric entities at asserted c
onnectivities');
#620=UNCERTAINTY_MEASURE_WITH_UNIT(LENGTH_MEASURE(0.01),#623,
'DISTANCE_ACCURACY_VALUE',
'Maximum model space distance between geometric entities at asserted c
onnectivities');
#621=(
GEOMETRIC_REPRESENTATION_CONTEXT(3)
GLOBAL_UNCERTAINTY_ASSIGNED_CONTEXT((#619))
GLOBAL_UNIT_ASSIGNED_CONTEXT((#623,#626,#625))
REPRESENTATION_CONTEXT('','3D')
);
#622=(
GEOMETRIC_REPRESENTATION_CONTEXT(3)
GLOBAL_UNCERTAINTY_ASSIGNED_CONTEXT((#620))
GLOBAL_UNIT_ASSIGNED_CONTEXT((#623,#626,#625))
REPRESENTATION_CONTEXT('','3D')
);
#623=(
LENGTH_UNIT()
NAMED_UNIT(*)
SI_UNIT(.MILLI.,.METRE.)
);
#624=(
LENGTH_UNIT()
NAMED_UNIT(*)
SI_UNIT($,.METRE.)
);
#625=(
NAMED_UNIT(*)
SI_UNIT($,.STERADIAN.)
SOLID_ANGLE_UNIT()
);
#626=(
NAMED_UNIT(*)
PLANE_ANGLE_UNIT()
SI_UNIT($,.RADIAN.)
);
#627=SHAPE_DEFINITION_REPRESENTATION(#628,#629);
#628=PRODUCT_DEFINITION_SHAPE('',$,#631);
#629=SHAPE_REPRESENTATION('',(#355),#621);
#630=PRODUCT_DEFINITION_CONTEXT('part definition',#635,'design');
#631=PRODUCT_DEFINITION('Embout [v1]','Embout [v1] v5',#632,#630);
#632=PRODUCT_DEFINITION_FORMATION('',$,#637);
#633=PRODUCT_RELATED_PRODUCT_CATEGORY('Embout [v1] v5','Embout [v1] v5',
(#637));
#634=APPLICATION_PROTOCOL_DEFINITION('international standard',
'automotive_design',2009,#635);
#635=APPLICATION_CONTEXT(
'Core Data for Automotive Mechanical Design Process');
#636=PRODUCT_CONTEXT('part definition',#635,'mechanical');
#637=PRODUCT('Embout [v1]','Embout [v1] v5',$,(#636));
#638=PRESENTATION_STYLE_ASSIGNMENT((#639));
#639=SURFACE_STYLE_USAGE(.BOTH.,#640);
#640=SURFACE_SIDE_STYLE('',(#641));
#641=SURFACE_STYLE_FILL_AREA(#642);
#642=FILL_AREA_STYLE('Aluminum - Polished',(#643));
#643=FILL_AREA_STYLE_COLOUR('Aluminum - Polished',#644);
#644=COLOUR_RGB('Aluminum - Polished',0.96078431372549,0.96078431372549,
0.964705882352941);
ENDSEC;
END-ISO-10303-21;
