ISO-10303-21;
HEADER;
FILE_DESCRIPTION(('STEP AP214'),'1');
FILE_NAME('BMR-011 PALIER.step','2015-12-04T17:00:20',(' '),(' '),'Spatial InterOp 3D',' ',' ');
FILE_SCHEMA(('automotive_design'));
ENDSEC;
DATA;
#1=MECHANICAL_DESIGN_GEOMETRIC_PRESENTATION_REPRESENTATION(' ',(#10,#11,#12,#13,#14,#15,#16,#17,#18,#19,#20,#21,#22,#23),#6);
#2=PRODUCT_DEFINITION_CONTEXT('',#24,'design');
#3=APPLICATION_PROTOCOL_DEFINITION('INTERNATIONAL STANDARD','automotive_design',1994,#24);
#4=PRODUCT_CATEGORY_RELATIONSHIP('NONE','NONE',#25,#26);
#5=SHAPE_DEFINITION_REPRESENTATION(#27,#28);
#6= (GEOMETRIC_REPRESENTATION_CONTEXT(3)GLOBAL_UNCERTAINTY_ASSIGNED_CONTEXT((#31))GLOBAL_UNIT_ASSIGNED_CONTEXT((#33,#34,#35))REPRESENTATION_CONTEXT('NONE','WORKSPACE'));
#10=STYLED_ITEM('',(#37),#38);
#11=STYLED_ITEM('',(#39),#40);
#12=STYLED_ITEM('',(#41),#42);
#13=STYLED_ITEM('',(#43),#44);
#14=STYLED_ITEM('',(#45),#46);
#15=STYLED_ITEM('',(#47),#48);
#16=STYLED_ITEM('',(#49),#50);
#17=STYLED_ITEM('',(#51),#52);
#18=STYLED_ITEM('',(#53),#54);
#19=STYLED_ITEM('',(#55),#56);
#20=STYLED_ITEM('',(#57),#58);
#21=STYLED_ITEM('',(#59),#60);
#22=STYLED_ITEM('',(#61),#62);
#23=STYLED_ITEM('',(#63),#64);
#24=APPLICATION_CONTEXT(' ');
#25=PRODUCT_CATEGORY('part','NONE');
#26=PRODUCT_RELATED_PRODUCT_CATEGORY('detail',' ',(#65));
#27=PRODUCT_DEFINITION_SHAPE('NONE','NONE',#66);
#28=ADVANCED_BREP_SHAPE_REPRESENTATION('PALIER',(#67,#68),#6);
#31=UNCERTAINTY_MEASURE_WITH_UNIT(LENGTH_MEASURE(0.001),#33,'','');
#33= (CONVERSION_BASED_UNIT('MILLIMETRE',#71)LENGTH_UNIT()NAMED_UNIT(#74));
#34= (NAMED_UNIT(#76)PLANE_ANGLE_UNIT()SI_UNIT($,.RADIAN.));
#35= (NAMED_UNIT(#76)SOLID_ANGLE_UNIT()SI_UNIT($,.STERADIAN.));
#37=PRESENTATION_STYLE_ASSIGNMENT((#82));
#38=ADVANCED_FACE('',(#83,#84,#85,#86,#87,#88),#89,.F.);
#39=PRESENTATION_STYLE_ASSIGNMENT((#90));
#40=ADVANCED_FACE('',(#91,#92),#93,.T.);
#41=PRESENTATION_STYLE_ASSIGNMENT((#94));
#42=ADVANCED_FACE('',(#95,#96),#97,.F.);
#43=PRESENTATION_STYLE_ASSIGNMENT((#98));
#44=ADVANCED_FACE('',(#99,#100),#101,.F.);
#45=PRESENTATION_STYLE_ASSIGNMENT((#102));
#46=ADVANCED_FACE('',(#103,#104),#105,.F.);
#47=PRESENTATION_STYLE_ASSIGNMENT((#106));
#48=ADVANCED_FACE('',(#107,#108),#109,.F.);
#49=PRESENTATION_STYLE_ASSIGNMENT((#110));
#50=ADVANCED_FACE('',(#111,#112),#113,.T.);
#51=PRESENTATION_STYLE_ASSIGNMENT((#114));
#52=ADVANCED_FACE('',(#115,#116,#117,#118,#119,#120),#121,.F.);
#53=PRESENTATION_STYLE_ASSIGNMENT((#122));
#54=ADVANCED_FACE('',(#123,#124),#125,.F.);
#55=PRESENTATION_STYLE_ASSIGNMENT((#126));
#56=ADVANCED_FACE('',(#127,#128),#129,.F.);
#57=PRESENTATION_STYLE_ASSIGNMENT((#130));
#58=ADVANCED_FACE('',(#131,#132),#133,.F.);
#59=PRESENTATION_STYLE_ASSIGNMENT((#134));
#60=ADVANCED_FACE('',(#135,#136),#137,.F.);
#61=PRESENTATION_STYLE_ASSIGNMENT((#138));
#62=ADVANCED_FACE('',(#139,#140),#141,.F.);
#63=PRESENTATION_STYLE_ASSIGNMENT((#142));
#64=ADVANCED_FACE('',(#143,#144),#145,.F.);
#65=PRODUCT('PALIER','PALIER','PART-PALIER-DESC',(#146));
#66=PRODUCT_DEFINITION('NONE','NONE',#147,#2);
#67=MANIFOLD_SOLID_BREP('PALIER',#148);
#68=AXIS2_PLACEMENT_3D('',#149,#150,#151);
#71=LENGTH_MEASURE_WITH_UNIT(LENGTH_MEASURE(1.0),#152);
#74=DIMENSIONAL_EXPONENTS(1.0,0.0,0.0,0.0,0.0,0.0,0.0);
#76=DIMENSIONAL_EXPONENTS(0.0,0.0,0.0,0.0,0.0,0.0,0.0);
#82=SURFACE_STYLE_USAGE(.BOTH.,#153);
#83=FACE_BOUND('',#154,.T.);
#84=FACE_BOUND('',#155,.T.);
#85=FACE_BOUND('',#156,.T.);
#86=FACE_BOUND('',#157,.T.);
#87=FACE_BOUND('',#158,.T.);
#88=FACE_OUTER_BOUND('',#159,.T.);
#89=PLANE('',#160);
#90=SURFACE_STYLE_USAGE(.BOTH.,#161);
#91=FACE_OUTER_BOUND('',#162,.T.);
#92=FACE_OUTER_BOUND('',#163,.T.);
#93=CYLINDRICAL_SURFACE('',#164,33.0);
#94=SURFACE_STYLE_USAGE(.BOTH.,#165);
#95=FACE_OUTER_BOUND('',#166,.T.);
#96=FACE_OUTER_BOUND('',#167,.T.);
#97=CYLINDRICAL_SURFACE('',#168,2.5);
#98=SURFACE_STYLE_USAGE(.BOTH.,#169);
#99=FACE_BOUND('',#170,.T.);
#100=FACE_OUTER_BOUND('',#171,.T.);
#101=PLANE('',#172);
#102=SURFACE_STYLE_USAGE(.BOTH.,#173);
#103=FACE_OUTER_BOUND('',#174,.T.);
#104=FACE_OUTER_BOUND('',#175,.T.);
#105=CYLINDRICAL_SURFACE('',#176,2.5);
#106=SURFACE_STYLE_USAGE(.BOTH.,#177);
#107=FACE_BOUND('',#178,.T.);
#108=FACE_OUTER_BOUND('',#179,.T.);
#109=PLANE('',#180);
#110=SURFACE_STYLE_USAGE(.BOTH.,#181);
#111=FACE_OUTER_BOUND('',#182,.T.);
#112=FACE_OUTER_BOUND('',#183,.T.);
#113=CYLINDRICAL_SURFACE('',#184,19.0);
#114=SURFACE_STYLE_USAGE(.BOTH.,#185);
#115=FACE_BOUND('',#186,.T.);
#116=FACE_BOUND('',#187,.T.);
#117=FACE_BOUND('',#188,.T.);
#118=FACE_BOUND('',#189,.T.);
#119=FACE_BOUND('',#190,.T.);
#120=FACE_OUTER_BOUND('',#191,.T.);
#121=PLANE('',#192);
#122=SURFACE_STYLE_USAGE(.BOTH.,#193);
#123=FACE_OUTER_BOUND('',#194,.T.);
#124=FACE_OUTER_BOUND('',#195,.T.);
#125=CYLINDRICAL_SURFACE('',#196,16.0);
#126=SURFACE_STYLE_USAGE(.BOTH.,#197);
#127=FACE_OUTER_BOUND('',#198,.T.);
#128=FACE_OUTER_BOUND('',#199,.T.);
#129=CYLINDRICAL_SURFACE('',#200,16.0);
#130=SURFACE_STYLE_USAGE(.BOTH.,#201);
#131=FACE_OUTER_BOUND('',#202,.T.);
#132=FACE_OUTER_BOUND('',#203,.T.);
#133=CYLINDRICAL_SURFACE('',#204,2.5);
#134=SURFACE_STYLE_USAGE(.BOTH.,#205);
#135=FACE_OUTER_BOUND('',#206,.T.);
#136=FACE_BOUND('',#207,.T.);
#137=PLANE('',#208);
#138=SURFACE_STYLE_USAGE(.BOTH.,#209);
#139=FACE_OUTER_BOUND('',#210,.T.);
#140=FACE_OUTER_BOUND('',#211,.T.);
#141=CYLINDRICAL_SURFACE('',#212,2.5);
#142=SURFACE_STYLE_USAGE(.BOTH.,#213);
#143=FACE_OUTER_BOUND('',#214,.T.);
#144=FACE_OUTER_BOUND('',#215,.T.);
#145=CYLINDRICAL_SURFACE('',#216,12.5);
#146=PRODUCT_CONTEXT('',#24,'mechanical');
#147=PRODUCT_DEFINITION_FORMATION_WITH_SPECIFIED_SOURCE(' ','NONE',#65,.NOT_KNOWN.);
#148=CLOSED_SHELL('',(#42,#40,#46,#52,#38,#50,#64,#48,#54,#60,#44,#56,#58,#62));
#149=CARTESIAN_POINT('',(0.0,0.0,0.0));
#150=DIRECTION('',(0.0,0.0,1.0));
#151=DIRECTION('',(1.0,0.0,0.0));
#152= (NAMED_UNIT(#74)LENGTH_UNIT()SI_UNIT(.MILLI.,.METRE.));
#153=SURFACE_SIDE_STYLE('',(#218));
#154=EDGE_LOOP('',(#219));
#155=EDGE_LOOP('',(#220));
#156=EDGE_LOOP('',(#221));
#157=EDGE_LOOP('',(#222));
#158=EDGE_LOOP('',(#223));
#159=EDGE_LOOP('',(#224));
#160=AXIS2_PLACEMENT_3D('',#225,#226,#227);
#161=SURFACE_SIDE_STYLE('',(#228));
#162=EDGE_LOOP('',(#229));
#163=EDGE_LOOP('',(#230));
#164=AXIS2_PLACEMENT_3D('',#231,#232,#233);
#165=SURFACE_SIDE_STYLE('',(#234));
#166=EDGE_LOOP('',(#235));
#167=EDGE_LOOP('',(#236));
#168=AXIS2_PLACEMENT_3D('',#237,#238,#239);
#169=SURFACE_SIDE_STYLE('',(#240));
#170=EDGE_LOOP('',(#241));
#171=EDGE_LOOP('',(#242));
#172=AXIS2_PLACEMENT_3D('',#243,#244,#245);
#173=SURFACE_SIDE_STYLE('',(#246));
#174=EDGE_LOOP('',(#247));
#175=EDGE_LOOP('',(#248));
#176=AXIS2_PLACEMENT_3D('',#249,#250,#251);
#177=SURFACE_SIDE_STYLE('',(#252));
#178=EDGE_LOOP('',(#253));
#179=EDGE_LOOP('',(#254));
#180=AXIS2_PLACEMENT_3D('',#255,#256,#257);
#181=SURFACE_SIDE_STYLE('',(#258));
#182=EDGE_LOOP('',(#259));
#183=EDGE_LOOP('',(#260));
#184=AXIS2_PLACEMENT_3D('',#261,#262,#263);
#185=SURFACE_SIDE_STYLE('',(#264));
#186=EDGE_LOOP('',(#265));
#187=EDGE_LOOP('',(#266));
#188=EDGE_LOOP('',(#267));
#189=EDGE_LOOP('',(#268));
#190=EDGE_LOOP('',(#269));
#191=EDGE_LOOP('',(#270));
#192=AXIS2_PLACEMENT_3D('',#271,#272,#273);
#193=SURFACE_SIDE_STYLE('',(#274));
#194=EDGE_LOOP('',(#275));
#195=EDGE_LOOP('',(#276));
#196=AXIS2_PLACEMENT_3D('',#277,#278,#279);
#197=SURFACE_SIDE_STYLE('',(#280));
#198=EDGE_LOOP('',(#281));
#199=EDGE_LOOP('',(#282));
#200=AXIS2_PLACEMENT_3D('',#283,#284,#285);
#201=SURFACE_SIDE_STYLE('',(#286));
#202=EDGE_LOOP('',(#287));
#203=EDGE_LOOP('',(#288));
#204=AXIS2_PLACEMENT_3D('',#289,#290,#291);
#205=SURFACE_SIDE_STYLE('',(#292));
#206=EDGE_LOOP('',(#293));
#207=EDGE_LOOP('',(#294));
#208=AXIS2_PLACEMENT_3D('',#295,#296,#297);
#209=SURFACE_SIDE_STYLE('',(#298));
#210=EDGE_LOOP('',(#299));
#211=EDGE_LOOP('',(#300));
#212=AXIS2_PLACEMENT_3D('',#301,#302,#303);
#213=SURFACE_SIDE_STYLE('',(#304));
#214=EDGE_LOOP('',(#305));
#215=EDGE_LOOP('',(#306));
#216=AXIS2_PLACEMENT_3D('',#307,#308,#309);
#218=SURFACE_STYLE_FILL_AREA(#310);
#219=ORIENTED_EDGE('',*,*,#311,.T.);
#220=ORIENTED_EDGE('',*,*,#312,.T.);
#221=ORIENTED_EDGE('',*,*,#313,.T.);
#222=ORIENTED_EDGE('',*,*,#314,.T.);
#223=ORIENTED_EDGE('',*,*,#315,.T.);
#224=ORIENTED_EDGE('',*,*,#316,.F.);
#225=CARTESIAN_POINT('',(-37.5,3.0,0.0));
#226=DIRECTION('',(6.12323399573677E-017,1.0,0.0));
#227=DIRECTION('',(-1.0,6.12323399573677E-017,0.0));
#228=SURFACE_STYLE_FILL_AREA(#317);
#229=ORIENTED_EDGE('',*,*,#316,.T.);
#230=ORIENTED_EDGE('',*,*,#318,.T.);
#231=CARTESIAN_POINT('',(0.0,-94.3134481287024,1.31421070756281E-014));
#232=DIRECTION('',(0.0,1.0,-1.22464679914735E-016));
#233=DIRECTION('',(1.0,0.0,0.0));
#234=SURFACE_STYLE_FILL_AREA(#319);
#235=ORIENTED_EDGE('',*,*,#320,.F.);
#236=ORIENTED_EDGE('',*,*,#315,.F.);
#237=CARTESIAN_POINT('',(20.3293199591132,0.499999999849026,20.3293199591132));
#238=DIRECTION('',(-1.22464679914735E-016,1.0,-6.12323399573677E-017));
#239=DIRECTION('',(-1.0,-1.22464679914735E-016,-1.83697019872103E-016));
#240=SURFACE_STYLE_FILL_AREA(#321);
#241=ORIENTED_EDGE('',*,*,#322,.F.);
#242=ORIENTED_EDGE('',*,*,#323,.T.);
#243=CARTESIAN_POINT('',(5.51091059616309E-016,12.0,0.0));
#244=DIRECTION('',(6.12323399573677E-017,1.0,0.0));
#245=DIRECTION('',(-1.0,6.12323399573677E-017,0.0));
#246=SURFACE_STYLE_FILL_AREA(#324);
#247=ORIENTED_EDGE('',*,*,#325,.F.);
#248=ORIENTED_EDGE('',*,*,#314,.F.);
#249=CARTESIAN_POINT('',(-20.3293199591132,0.499999999849026,20.3293199591132));
#250=DIRECTION('',(-6.12323399573677E-017,1.0,-2.4492935982947E-016));
#251=DIRECTION('',(1.22464679914735E-016,-2.4492935982947E-016,-1.0));
#252=SURFACE_STYLE_FILL_AREA(#326);
#253=ORIENTED_EDGE('',*,*,#327,.T.);
#254=ORIENTED_EDGE('',*,*,#328,.F.);
#255=CARTESIAN_POINT('',(-3.56192948382192E-032,32.0,0.0));
#256=DIRECTION('',(-6.12323399573677E-017,-1.0,0.0));
#257=DIRECTION('',(1.0,-6.12323399573677E-017,0.0));
#258=SURFACE_STYLE_FILL_AREA(#329);
#259=ORIENTED_EDGE('',*,*,#330,.F.);
#260=ORIENTED_EDGE('',*,*,#328,.T.);
#261=CARTESIAN_POINT('',(-3.06161699786838E-015,-50.0,0.0));
#262=DIRECTION('',(-6.12323399573677E-017,-1.0,0.0));
#263=DIRECTION('',(1.0,-6.12323399573677E-017,0.0));
#264=SURFACE_STYLE_FILL_AREA(#331);
#265=ORIENTED_EDGE('',*,*,#330,.T.);
#266=ORIENTED_EDGE('',*,*,#332,.T.);
#267=ORIENTED_EDGE('',*,*,#333,.T.);
#268=ORIENTED_EDGE('',*,*,#325,.T.);
#269=ORIENTED_EDGE('',*,*,#320,.T.);
#270=ORIENTED_EDGE('',*,*,#318,.F.);
#271=CARTESIAN_POINT('',(-19.0,13.0,0.0));
#272=DIRECTION('',(-6.12323399573677E-017,-1.0,0.0));
#273=DIRECTION('',(1.0,-6.12323399573677E-017,0.0));
#274=SURFACE_STYLE_FILL_AREA(#334);
#275=ORIENTED_EDGE('',*,*,#327,.F.);
#276=ORIENTED_EDGE('',*,*,#335,.F.);
#277=CARTESIAN_POINT('',(1.40834381901946E-015,23.0,0.0));
#278=DIRECTION('',(6.12323399573677E-017,1.0,-0.0));
#279=DIRECTION('',(0.0,0.0,1.0));
#280=SURFACE_STYLE_FILL_AREA(#336);
#281=ORIENTED_EDGE('',*,*,#311,.F.);
#282=ORIENTED_EDGE('',*,*,#323,.F.);
#283=CARTESIAN_POINT('',(5.51091059616309E-016,12.0,0.0));
#284=DIRECTION('',(-6.12323399573677E-017,-1.0,-0.0));
#285=DIRECTION('',(0.0,0.0,-1.0));
#286=SURFACE_STYLE_FILL_AREA(#337);
#287=ORIENTED_EDGE('',*,*,#332,.F.);
#288=ORIENTED_EDGE('',*,*,#312,.F.);
#289=CARTESIAN_POINT('',(20.3293199591132,0.499999999849021,-20.3293199591132));
#290=DIRECTION('',(6.12323399573677E-017,1.0,-0.0));
#291=DIRECTION('',(0.0,0.0,1.0));
#292=SURFACE_STYLE_FILL_AREA(#338);
#293=ORIENTED_EDGE('',*,*,#335,.T.);
#294=ORIENTED_EDGE('',*,*,#339,.F.);
#295=CARTESIAN_POINT('',(1.40834381901946E-015,23.0,0.0));
#296=DIRECTION('',(-6.12323399573677E-017,-1.0,0.0));
#297=DIRECTION('',(1.0,-6.12323399573677E-017,0.0));
#298=SURFACE_STYLE_FILL_AREA(#340);
#299=ORIENTED_EDGE('',*,*,#333,.F.);
#300=ORIENTED_EDGE('',*,*,#313,.F.);
#301=CARTESIAN_POINT('',(-20.3293199591132,0.499999999849021,-20.3293199591132));
#302=DIRECTION('',(1.22464679914735E-016,1.0,-1.83697019872103E-016));
#303=DIRECTION('',(1.0,-1.22464679914735E-016,6.12323399573677E-017));
#304=SURFACE_STYLE_FILL_AREA(#341);
#305=ORIENTED_EDGE('',*,*,#339,.T.);
#306=ORIENTED_EDGE('',*,*,#322,.T.);
#307=CARTESIAN_POINT('',(1.79349523734669E-015,32.2899999999247,0.0));
#308=DIRECTION('',(-6.12323399573677E-017,-1.0,-0.0));
#309=DIRECTION('',(0.0,0.0,-1.0));
#310=FILL_AREA_STYLE('',(#342));
#311=EDGE_CURVE('',#343,#343,#344,.T.);
#312=EDGE_CURVE('',#345,#345,#346,.T.);
#313=EDGE_CURVE('',#347,#347,#348,.T.);
#314=EDGE_CURVE('',#349,#349,#350,.T.);
#315=EDGE_CURVE('',#351,#351,#352,.T.);
#316=EDGE_CURVE('',#353,#353,#354,.T.);
#317=FILL_AREA_STYLE('',(#355));
#318=EDGE_CURVE('',#356,#356,#357,.T.);
#319=FILL_AREA_STYLE('',(#358));
#320=EDGE_CURVE('',#359,#359,#360,.T.);
#321=FILL_AREA_STYLE('',(#361));
#322=EDGE_CURVE('',#362,#362,#363,.F.);
#323=EDGE_CURVE('',#364,#364,#365,.T.);
#324=FILL_AREA_STYLE('',(#366));
#325=EDGE_CURVE('',#367,#367,#368,.T.);
#326=FILL_AREA_STYLE('',(#369));
#327=EDGE_CURVE('',#370,#370,#371,.T.);
#328=EDGE_CURVE('',#372,#372,#373,.T.);
#329=FILL_AREA_STYLE('',(#374));
#330=EDGE_CURVE('',#375,#375,#376,.T.);
#331=FILL_AREA_STYLE('',(#377));
#332=EDGE_CURVE('',#378,#378,#379,.T.);
#333=EDGE_CURVE('',#380,#380,#381,.T.);
#334=FILL_AREA_STYLE('',(#382));
#335=EDGE_CURVE('',#383,#383,#384,.T.);
#336=FILL_AREA_STYLE('',(#385));
#337=FILL_AREA_STYLE('',(#386));
#338=FILL_AREA_STYLE('',(#387));
#339=EDGE_CURVE('',#388,#388,#389,.F.);
#340=FILL_AREA_STYLE('',(#390));
#341=FILL_AREA_STYLE('',(#391));
#342=FILL_AREA_STYLE_COLOUR('',#392);
#343=VERTEX_POINT('',#393);
#344=CIRCLE('',#394,16.0);
#345=VERTEX_POINT('',#395);
#346=CIRCLE('',#396,2.5);
#347=VERTEX_POINT('',#397);
#348=CIRCLE('',#398,2.5);
#349=VERTEX_POINT('',#399);
#350=CIRCLE('',#400,2.5);
#351=VERTEX_POINT('',#401);
#352=CIRCLE('',#402,2.5);
#353=VERTEX_POINT('',#403);
#354=CIRCLE('',#404,33.0);
#355=FILL_AREA_STYLE_COLOUR('',#405);
#356=VERTEX_POINT('',#406);
#357=CIRCLE('',#407,33.0);
#358=FILL_AREA_STYLE_COLOUR('',#408);
#359=VERTEX_POINT('',#409);
#360=CIRCLE('',#410,2.5);
#361=FILL_AREA_STYLE_COLOUR('',#411);
#362=VERTEX_POINT('',#412);
#363=CIRCLE('',#413,12.5);
#364=VERTEX_POINT('',#414);
#365=CIRCLE('',#415,16.0);
#366=FILL_AREA_STYLE_COLOUR('',#416);
#367=VERTEX_POINT('',#417);
#368=CIRCLE('',#418,2.5);
#369=FILL_AREA_STYLE_COLOUR('',#419);
#370=VERTEX_POINT('',#420);
#371=CIRCLE('',#421,16.0);
#372=VERTEX_POINT('',#422);
#373=CIRCLE('',#423,19.0);
#374=FILL_AREA_STYLE_COLOUR('',#424);
#375=VERTEX_POINT('',#425);
#376=CIRCLE('',#426,19.0);
#377=FILL_AREA_STYLE_COLOUR('',#427);
#378=VERTEX_POINT('',#428);
#379=CIRCLE('',#429,2.5);
#380=VERTEX_POINT('',#430);
#381=CIRCLE('',#431,2.5);
#382=FILL_AREA_STYLE_COLOUR('',#432);
#383=VERTEX_POINT('',#433);
#384=CIRCLE('',#434,16.0);
#385=FILL_AREA_STYLE_COLOUR('',#435);
#386=FILL_AREA_STYLE_COLOUR('',#436);
#387=FILL_AREA_STYLE_COLOUR('',#437);
#388=VERTEX_POINT('',#438);
#389=CIRCLE('',#439,12.5);
#390=FILL_AREA_STYLE_COLOUR('',#440);
#391=FILL_AREA_STYLE_COLOUR('',#441);
#392=COLOUR_RGB('',1.0,0.501960813999176,0.501960813999176);
#393=CARTESIAN_POINT('',(0.0,3.0,-16.0));
#394=AXIS2_PLACEMENT_3D('',#442,#443,#444);
#395=CARTESIAN_POINT('',(17.8293199591132,3.0,-20.3293199591132));
#396=AXIS2_PLACEMENT_3D('',#445,#446,#447);
#397=CARTESIAN_POINT('',(-22.8293199591132,3.0,-20.3293199591132));
#398=AXIS2_PLACEMENT_3D('',#448,#449,#450);
#399=CARTESIAN_POINT('',(-22.8293199591132,3.0,20.3293199591132));
#400=AXIS2_PLACEMENT_3D('',#451,#452,#453);
#401=CARTESIAN_POINT('',(17.8293199591132,3.0,20.3293199591132));
#402=AXIS2_PLACEMENT_3D('',#454,#455,#456);
#403=CARTESIAN_POINT('',(-33.0,3.0,1.22464679914735E-015));
#404=AXIS2_PLACEMENT_3D('',#457,#458,#459);
#405=COLOUR_RGB('',1.0,0.501960813999176,0.501960813999176);
#406=CARTESIAN_POINT('',(33.0,13.0,-3.08148791101958E-030));
#407=AXIS2_PLACEMENT_3D('',#460,#461,#462);
#408=COLOUR_RGB('',1.0,0.501960813999176,0.501960813999176);
#409=CARTESIAN_POINT('',(17.8293199591132,13.0,20.3293199591132));
#410=AXIS2_PLACEMENT_3D('',#463,#464,#465);
#411=COLOUR_RGB('',1.0,0.501960813999176,0.501960813999176);
#412=CARTESIAN_POINT('',(-12.5,12.0,-3.06161699786838E-015));
#413=AXIS2_PLACEMENT_3D('',#466,#467,#468);
#414=CARTESIAN_POINT('',(5.51091059616309E-016,12.0,-16.0));
#415=AXIS2_PLACEMENT_3D('',#469,#470,#471);
#416=COLOUR_RGB('',1.0,0.501960813999176,0.501960813999176);
#417=CARTESIAN_POINT('',(-20.3293199591132,13.0,17.8293199591132));
#418=AXIS2_PLACEMENT_3D('',#472,#473,#474);
#419=COLOUR_RGB('',1.0,0.501960813999176,0.501960813999176);
#420=CARTESIAN_POINT('',(1.95943487863577E-015,32.0,16.0));
#421=AXIS2_PLACEMENT_3D('',#475,#476,#477);
#422=CARTESIAN_POINT('',(19.0,32.0,0.0));
#423=AXIS2_PLACEMENT_3D('',#478,#479,#480);
#424=COLOUR_RGB('',1.0,0.501960813999176,0.501960813999176);
#425=CARTESIAN_POINT('',(19.0,13.0,0.0));
#426=AXIS2_PLACEMENT_3D('',#481,#482,#483);
#427=COLOUR_RGB('',1.0,0.501960813999176,0.501960813999176);
#428=CARTESIAN_POINT('',(20.3293199591132,13.0,-17.8293199591132));
#429=AXIS2_PLACEMENT_3D('',#484,#485,#486);
#430=CARTESIAN_POINT('',(-17.8293199591132,13.0,-20.3293199591132));
#431=AXIS2_PLACEMENT_3D('',#487,#488,#489);
#432=COLOUR_RGB('',1.0,0.501960813999176,0.501960813999176);
#433=CARTESIAN_POINT('',(1.40834381901946E-015,23.0,16.0));
#434=AXIS2_PLACEMENT_3D('',#490,#491,#492);
#435=COLOUR_RGB('',1.0,0.501960813999176,0.501960813999176);
#436=COLOUR_RGB('',1.0,0.501960813999176,0.501960813999176);
#437=COLOUR_RGB('',1.0,0.501960813999176,0.501960813999176);
#438=CARTESIAN_POINT('',(12.5,23.0,-3.06161699786838E-015));
#439=AXIS2_PLACEMENT_3D('',#493,#494,#495);
#440=COLOUR_RGB('',1.0,0.501960813999176,0.501960813999176);
#441=COLOUR_RGB('',1.0,0.501960813999176,0.501960813999176);
#442=CARTESIAN_POINT('',(0.0,3.0,0.0));
#443=DIRECTION('',(6.12323399573677E-017,1.0,0.0));
#444=DIRECTION('',(0.0,0.0,-1.0));
#445=CARTESIAN_POINT('',(20.3293199591132,3.0,-20.3293199591132));
#446=DIRECTION('',(6.12323399573677E-017,1.0,0.0));
#447=DIRECTION('',(-1.0,6.12323399573677E-017,0.0));
#448=CARTESIAN_POINT('',(-20.3293199591132,3.0,-20.3293199591132));
#449=DIRECTION('',(6.12323399573677E-017,1.0,0.0));
#450=DIRECTION('',(-1.0,6.12323399573677E-017,0.0));
#451=CARTESIAN_POINT('',(-20.3293199591132,3.0,20.3293199591132));
#452=DIRECTION('',(6.12323399573677E-017,1.0,0.0));
#453=DIRECTION('',(-1.0,6.12323399573677E-017,0.0));
#454=CARTESIAN_POINT('',(20.3293199591132,3.0,20.3293199591132));
#455=DIRECTION('',(6.12323399573677E-017,1.0,0.0));
#456=DIRECTION('',(-1.0,6.12323399573677E-017,0.0));
#457=CARTESIAN_POINT('',(0.0,3.0,1.22464679914735E-015));
#458=DIRECTION('',(6.12323399573677E-017,1.0,0.0));
#459=DIRECTION('',(-1.0,6.12323399573677E-017,0.0));
#460=CARTESIAN_POINT('',(0.0,13.0,-3.08148791101958E-030));
#461=DIRECTION('',(-6.12323399573677E-017,-1.0,0.0));
#462=DIRECTION('',(1.0,-6.12323399573677E-017,0.0));
#463=CARTESIAN_POINT('',(20.3293199591132,13.0,20.3293199591132));
#464=DIRECTION('',(1.22464679914735E-016,-1.0,6.12323399573677E-017));
#465=DIRECTION('',(-1.0,-1.22464679914735E-016,-1.83697019872103E-016));
#466=CARTESIAN_POINT('',(5.51091059616309E-016,12.0,0.0));
#467=DIRECTION('',(6.12323399573677E-017,1.0,0.0));
#468=DIRECTION('',(-1.0,6.12323399573677E-017,0.0));
#469=CARTESIAN_POINT('',(5.51091059616309E-016,12.0,0.0));
#470=DIRECTION('',(-6.12323399573677E-017,-1.0,-0.0));
#471=DIRECTION('',(0.0,0.0,-1.0));
#472=CARTESIAN_POINT('',(-20.3293199591132,13.0,20.3293199591132));
#473=DIRECTION('',(6.12323399573677E-017,-1.0,2.4492935982947E-016));
#474=DIRECTION('',(1.22464679914735E-016,-2.4492935982947E-016,-1.0));
#475=CARTESIAN_POINT('',(1.95943487863577E-015,32.0,0.0));
#476=DIRECTION('',(-6.12323399573677E-017,-1.0,0.0));
#477=DIRECTION('',(0.0,0.0,1.0));
#478=CARTESIAN_POINT('',(1.95943487863577E-015,32.0,0.0));
#479=DIRECTION('',(-6.12323399573677E-017,-1.0,0.0));
#480=DIRECTION('',(1.0,-6.12323399573677E-017,0.0));
#481=CARTESIAN_POINT('',(7.96020419445779E-016,13.0,0.0));
#482=DIRECTION('',(-6.12323399573677E-017,-1.0,0.0));
#483=DIRECTION('',(1.0,-6.12323399573677E-017,0.0));
#484=CARTESIAN_POINT('',(20.3293199591132,13.0,-20.3293199591132));
#485=DIRECTION('',(-6.12323399573677E-017,-1.0,0.0));
#486=DIRECTION('',(0.0,0.0,1.0));
#487=CARTESIAN_POINT('',(-20.3293199591132,13.0,-20.3293199591132));
#488=DIRECTION('',(-1.22464679914735E-016,-1.0,1.83697019872103E-016));
#489=DIRECTION('',(1.0,-1.22464679914735E-016,6.12323399573677E-017));
#490=CARTESIAN_POINT('',(1.40834381901946E-015,23.0,0.0));
#491=DIRECTION('',(6.12323399573677E-017,1.0,-0.0));
#492=DIRECTION('',(0.0,0.0,1.0));
#493=CARTESIAN_POINT('',(1.22464679914735E-015,23.0,0.0));
#494=DIRECTION('',(-6.12323399573677E-017,-1.0,0.0));
#495=DIRECTION('',(1.0,-6.12323399573677E-017,0.0));
#496=PRESENTATION_LAYER_ASSIGNMENT('2','',(#67));
ENDSEC;
END-ISO-10303-21;
