ISO-10303-21;
HEADER;
FILE_DESCRIPTION(('STEP AP214'),'1');
FILE_NAME('BMR-042b FOURREAU LIBRE.step','2016-03-29T19:35:29',(' '),(' '),'Spatial InterOp 3D',' ',' ');
FILE_SCHEMA(('automotive_design'));
ENDSEC;
DATA;
#1=MECHANICAL_DESIGN_GEOMETRIC_PRESENTATION_REPRESENTATION(' ',(#10,#11,#12,#13,#14,#15,#16,#17,#18,#19,#20,#21,#22,#23,#24,#25),#6);
#2=PRODUCT_DEFINITION_CONTEXT('',#26,'design');
#3=APPLICATION_PROTOCOL_DEFINITION('INTERNATIONAL STANDARD','automotive_design',1994,#26);
#4=PRODUCT_CATEGORY_RELATIONSHIP('NONE','NONE',#27,#28);
#5=SHAPE_DEFINITION_REPRESENTATION(#29,#30);
#6= (GEOMETRIC_REPRESENTATION_CONTEXT(3)GLOBAL_UNCERTAINTY_ASSIGNED_CONTEXT((#33))GLOBAL_UNIT_ASSIGNED_CONTEXT((#35,#36,#37))REPRESENTATION_CONTEXT('NONE','WORKSPACE'));
#10=STYLED_ITEM('',(#39),#40);
#11=STYLED_ITEM('',(#41),#42);
#12=STYLED_ITEM('',(#43),#44);
#13=STYLED_ITEM('',(#45),#46);
#14=STYLED_ITEM('',(#47),#48);
#15=STYLED_ITEM('',(#49),#50);
#16=STYLED_ITEM('',(#51),#52);
#17=STYLED_ITEM('',(#53),#54);
#18=STYLED_ITEM('',(#55),#56);
#19=STYLED_ITEM('',(#57),#58);
#20=STYLED_ITEM('',(#59),#60);
#21=STYLED_ITEM('',(#61),#62);
#22=STYLED_ITEM('',(#63),#64);
#23=STYLED_ITEM('',(#65),#66);
#24=STYLED_ITEM('',(#67),#68);
#25=STYLED_ITEM('',(#69),#70);
#26=APPLICATION_CONTEXT(' ');
#27=PRODUCT_CATEGORY('part','NONE');
#28=PRODUCT_RELATED_PRODUCT_CATEGORY('detail',' ',(#71));
#29=PRODUCT_DEFINITION_SHAPE('NONE','NONE',#72);
#30=ADVANCED_BREP_SHAPE_REPRESENTATION('FOURREAU LIBRE',(#73,#74),#6);
#33=UNCERTAINTY_MEASURE_WITH_UNIT(LENGTH_MEASURE(0.001),#35,'','');
#35= (CONVERSION_BASED_UNIT('MILLIMETRE',#77)LENGTH_UNIT()NAMED_UNIT(#80));
#36= (NAMED_UNIT(#82)PLANE_ANGLE_UNIT()SI_UNIT($,.RADIAN.));
#37= (NAMED_UNIT(#82)SOLID_ANGLE_UNIT()SI_UNIT($,.STERADIAN.));
#39=PRESENTATION_STYLE_ASSIGNMENT((#88));
#40=ADVANCED_FACE('',(#89,#90),#91,.F.);
#41=PRESENTATION_STYLE_ASSIGNMENT((#92));
#42=ADVANCED_FACE('',(#93,#94),#95,.T.);
#43=PRESENTATION_STYLE_ASSIGNMENT((#96));
#44=ADVANCED_FACE('',(#97,#98),#99,.F.);
#45=PRESENTATION_STYLE_ASSIGNMENT((#100));
#46=ADVANCED_FACE('',(#101,#102),#103,.F.);
#47=PRESENTATION_STYLE_ASSIGNMENT((#104));
#48=ADVANCED_FACE('',(#105,#106),#107,.F.);
#49=PRESENTATION_STYLE_ASSIGNMENT((#108));
#50=ADVANCED_FACE('',(#109,#110),#111,.F.);
#51=PRESENTATION_STYLE_ASSIGNMENT((#112));
#52=ADVANCED_FACE('',(#113,#114,#115,#116,#117,#118,#119,#120),#121,.F.);
#53=PRESENTATION_STYLE_ASSIGNMENT((#122));
#54=ADVANCED_FACE('',(#123,#124),#125,.F.);
#55=PRESENTATION_STYLE_ASSIGNMENT((#126));
#56=ADVANCED_FACE('',(#127,#128),#129,.F.);
#57=PRESENTATION_STYLE_ASSIGNMENT((#130));
#58=ADVANCED_FACE('',(#131,#132),#133,.T.);
#59=PRESENTATION_STYLE_ASSIGNMENT((#134));
#60=ADVANCED_FACE('',(#135,#136),#137,.F.);
#61=PRESENTATION_STYLE_ASSIGNMENT((#138));
#62=ADVANCED_FACE('',(#139,#140),#141,.F.);
#63=PRESENTATION_STYLE_ASSIGNMENT((#142));
#64=ADVANCED_FACE('',(#143,#144),#145,.F.);
#65=PRESENTATION_STYLE_ASSIGNMENT((#146));
#66=ADVANCED_FACE('',(#147,#148,#149,#150,#151,#152,#153,#154),#155,.F.);
#67=PRESENTATION_STYLE_ASSIGNMENT((#156));
#68=ADVANCED_FACE('',(#157,#158),#159,.F.);
#69=PRESENTATION_STYLE_ASSIGNMENT((#160));
#70=ADVANCED_FACE('',(#161,#162),#163,.F.);
#71=PRODUCT('FOURREAU LIBRE','FOURREAU LIBRE','PART-FOURREAU LIBRE-DESC',(#164));
#72=PRODUCT_DEFINITION('NONE','NONE',#165,#2);
#73=MANIFOLD_SOLID_BREP('FOURREAU LIBRE',#166);
#74=AXIS2_PLACEMENT_3D('',#167,#168,#169);
#77=LENGTH_MEASURE_WITH_UNIT(LENGTH_MEASURE(1.0),#170);
#80=DIMENSIONAL_EXPONENTS(1.0,0.0,0.0,0.0,0.0,0.0,0.0);
#82=DIMENSIONAL_EXPONENTS(0.0,0.0,0.0,0.0,0.0,0.0,0.0);
#88=SURFACE_STYLE_USAGE(.BOTH.,#171);
#89=FACE_OUTER_BOUND('',#172,.T.);
#90=FACE_OUTER_BOUND('',#173,.T.);
#91=CYLINDRICAL_SURFACE('',#174,21.0);
#92=SURFACE_STYLE_USAGE(.BOTH.,#175);
#93=FACE_OUTER_BOUND('',#176,.T.);
#94=FACE_OUTER_BOUND('',#177,.T.);
#95=CYLINDRICAL_SURFACE('',#178,24.0);
#96=SURFACE_STYLE_USAGE(.BOTH.,#179);
#97=FACE_OUTER_BOUND('',#180,.T.);
#98=FACE_OUTER_BOUND('',#181,.T.);
#99=CYLINDRICAL_SURFACE('',#182,21.0);
#100=SURFACE_STYLE_USAGE(.BOTH.,#183);
#101=FACE_OUTER_BOUND('',#184,.T.);
#102=FACE_OUTER_BOUND('',#185,.T.);
#103=CYLINDRICAL_SURFACE('',#186,2.5);
#104=SURFACE_STYLE_USAGE(.BOTH.,#187);
#105=FACE_OUTER_BOUND('',#188,.T.);
#106=FACE_BOUND('',#189,.T.);
#107=PLANE('',#190);
#108=SURFACE_STYLE_USAGE(.BOTH.,#191);
#109=FACE_OUTER_BOUND('',#192,.T.);
#110=FACE_OUTER_BOUND('',#193,.T.);
#111=CYLINDRICAL_SURFACE('',#194,2.5);
#112=SURFACE_STYLE_USAGE(.BOTH.,#195);
#113=FACE_BOUND('',#196,.T.);
#114=FACE_BOUND('',#197,.T.);
#115=FACE_BOUND('',#198,.T.);
#116=FACE_BOUND('',#199,.T.);
#117=FACE_BOUND('',#200,.T.);
#118=FACE_BOUND('',#201,.T.);
#119=FACE_BOUND('',#202,.T.);
#120=FACE_OUTER_BOUND('',#203,.T.);
#121=PLANE('',#204);
#122=SURFACE_STYLE_USAGE(.BOTH.,#205);
#123=FACE_OUTER_BOUND('',#206,.T.);
#124=FACE_OUTER_BOUND('',#207,.T.);
#125=CYLINDRICAL_SURFACE('',#208,2.5);
#126=SURFACE_STYLE_USAGE(.BOTH.,#209);
#127=FACE_OUTER_BOUND('',#210,.T.);
#128=FACE_OUTER_BOUND('',#211,.T.);
#129=CYLINDRICAL_SURFACE('',#212,18.5);
#130=SURFACE_STYLE_USAGE(.BOTH.,#213);
#131=FACE_OUTER_BOUND('',#214,.T.);
#132=FACE_OUTER_BOUND('',#215,.T.);
#133=CYLINDRICAL_SURFACE('',#216,35.0);
#134=SURFACE_STYLE_USAGE(.BOTH.,#217);
#135=FACE_OUTER_BOUND('',#218,.T.);
#136=FACE_OUTER_BOUND('',#219,.T.);
#137=CYLINDRICAL_SURFACE('',#220,2.5);
#138=SURFACE_STYLE_USAGE(.BOTH.,#221);
#139=FACE_OUTER_BOUND('',#222,.T.);
#140=FACE_BOUND('',#223,.T.);
#141=PLANE('',#224);
#142=SURFACE_STYLE_USAGE(.BOTH.,#225);
#143=FACE_OUTER_BOUND('',#226,.T.);
#144=FACE_OUTER_BOUND('',#227,.T.);
#145=CYLINDRICAL_SURFACE('',#228,2.5);
#146=SURFACE_STYLE_USAGE(.BOTH.,#229);
#147=FACE_BOUND('',#230,.T.);
#148=FACE_BOUND('',#231,.T.);
#149=FACE_BOUND('',#232,.T.);
#150=FACE_BOUND('',#233,.T.);
#151=FACE_BOUND('',#234,.T.);
#152=FACE_BOUND('',#235,.T.);
#153=FACE_OUTER_BOUND('',#236,.T.);
#154=FACE_BOUND('',#237,.T.);
#155=PLANE('',#238);
#156=SURFACE_STYLE_USAGE(.BOTH.,#239);
#157=FACE_OUTER_BOUND('',#240,.T.);
#158=FACE_OUTER_BOUND('',#241,.T.);
#159=CYLINDRICAL_SURFACE('',#242,2.5);
#160=SURFACE_STYLE_USAGE(.BOTH.,#243);
#161=FACE_BOUND('',#244,.T.);
#162=FACE_OUTER_BOUND('',#245,.T.);
#163=PLANE('',#246);
#164=PRODUCT_CONTEXT('',#26,'mechanical');
#165=PRODUCT_DEFINITION_FORMATION_WITH_SPECIFIED_SOURCE(' ','NONE',#71,.NOT_KNOWN.);
#166=CLOSED_SHELL('',(#58,#66,#42,#52,#56,#70,#40,#48,#44,#62,#46,#50,#68,#54,#64,#60));
#167=CARTESIAN_POINT('',(0.0,0.0,0.0));
#168=DIRECTION('',(0.0,0.0,1.0));
#169=DIRECTION('',(1.0,0.0,0.0));
#170= (NAMED_UNIT(#80)LENGTH_UNIT()SI_UNIT(.MILLI.,.METRE.));
#171=SURFACE_SIDE_STYLE('',(#248));
#172=EDGE_LOOP('',(#249));
#173=EDGE_LOOP('',(#250));
#174=AXIS2_PLACEMENT_3D('',#251,#252,#253);
#175=SURFACE_SIDE_STYLE('',(#254));
#176=EDGE_LOOP('',(#255));
#177=EDGE_LOOP('',(#256));
#178=AXIS2_PLACEMENT_3D('',#257,#258,#259);
#179=SURFACE_SIDE_STYLE('',(#260));
#180=EDGE_LOOP('',(#261));
#181=EDGE_LOOP('',(#262));
#182=AXIS2_PLACEMENT_3D('',#263,#264,#265);
#183=SURFACE_SIDE_STYLE('',(#266));
#184=EDGE_LOOP('',(#267));
#185=EDGE_LOOP('',(#268));
#186=AXIS2_PLACEMENT_3D('',#269,#270,#271);
#187=SURFACE_SIDE_STYLE('',(#272));
#188=EDGE_LOOP('',(#273));
#189=EDGE_LOOP('',(#274));
#190=AXIS2_PLACEMENT_3D('',#275,#276,#277);
#191=SURFACE_SIDE_STYLE('',(#278));
#192=EDGE_LOOP('',(#279));
#193=EDGE_LOOP('',(#280));
#194=AXIS2_PLACEMENT_3D('',#281,#282,#283);
#195=SURFACE_SIDE_STYLE('',(#284));
#196=EDGE_LOOP('',(#285));
#197=EDGE_LOOP('',(#286));
#198=EDGE_LOOP('',(#287));
#199=EDGE_LOOP('',(#288));
#200=EDGE_LOOP('',(#289));
#201=EDGE_LOOP('',(#290));
#202=EDGE_LOOP('',(#291));
#203=EDGE_LOOP('',(#292));
#204=AXIS2_PLACEMENT_3D('',#293,#294,#295);
#205=SURFACE_SIDE_STYLE('',(#296));
#206=EDGE_LOOP('',(#297));
#207=EDGE_LOOP('',(#298));
#208=AXIS2_PLACEMENT_3D('',#299,#300,#301);
#209=SURFACE_SIDE_STYLE('',(#302));
#210=EDGE_LOOP('',(#303));
#211=EDGE_LOOP('',(#304));
#212=AXIS2_PLACEMENT_3D('',#305,#306,#307);
#213=SURFACE_SIDE_STYLE('',(#308));
#214=EDGE_LOOP('',(#309));
#215=EDGE_LOOP('',(#310));
#216=AXIS2_PLACEMENT_3D('',#311,#312,#313);
#217=SURFACE_SIDE_STYLE('',(#314));
#218=EDGE_LOOP('',(#315));
#219=EDGE_LOOP('',(#316));
#220=AXIS2_PLACEMENT_3D('',#317,#318,#319);
#221=SURFACE_SIDE_STYLE('',(#320));
#222=EDGE_LOOP('',(#321));
#223=EDGE_LOOP('',(#322));
#224=AXIS2_PLACEMENT_3D('',#323,#324,#325);
#225=SURFACE_SIDE_STYLE('',(#326));
#226=EDGE_LOOP('',(#327));
#227=EDGE_LOOP('',(#328));
#228=AXIS2_PLACEMENT_3D('',#329,#330,#331);
#229=SURFACE_SIDE_STYLE('',(#332));
#230=EDGE_LOOP('',(#333));
#231=EDGE_LOOP('',(#334));
#232=EDGE_LOOP('',(#335));
#233=EDGE_LOOP('',(#336));
#234=EDGE_LOOP('',(#337));
#235=EDGE_LOOP('',(#338));
#236=EDGE_LOOP('',(#339));
#237=EDGE_LOOP('',(#340));
#238=AXIS2_PLACEMENT_3D('',#341,#342,#343);
#239=SURFACE_SIDE_STYLE('',(#344));
#240=EDGE_LOOP('',(#345));
#241=EDGE_LOOP('',(#346));
#242=AXIS2_PLACEMENT_3D('',#347,#348,#349);
#243=SURFACE_SIDE_STYLE('',(#350));
#244=EDGE_LOOP('',(#351));
#245=EDGE_LOOP('',(#352));
#246=AXIS2_PLACEMENT_3D('',#353,#354,#355);
#248=SURFACE_STYLE_FILL_AREA(#356);
#249=ORIENTED_EDGE('',*,*,#357,.F.);
#250=ORIENTED_EDGE('',*,*,#358,.F.);
#251=CARTESIAN_POINT('',(9.49999999999974,0.0,0.0));
#252=DIRECTION('',(1.0,0.0,0.0));
#253=DIRECTION('',(0.0,1.0,0.0));
#254=SURFACE_STYLE_FILL_AREA(#359);
#255=ORIENTED_EDGE('',*,*,#360,.F.);
#256=ORIENTED_EDGE('',*,*,#361,.T.);
#257=CARTESIAN_POINT('',(0.0,0.0,0.0));
#258=DIRECTION('',(-1.0,0.0,0.0));
#259=DIRECTION('',(0.0,0.0,1.0));
#260=SURFACE_STYLE_FILL_AREA(#362);
#261=ORIENTED_EDGE('',*,*,#363,.F.);
#262=ORIENTED_EDGE('',*,*,#364,.F.);
#263=CARTESIAN_POINT('',(-13.5000000000003,0.0,0.0));
#264=DIRECTION('',(-1.0,0.0,0.0));
#265=DIRECTION('',(0.0,-1.0,0.0));
#266=SURFACE_STYLE_FILL_AREA(#365);
#267=ORIENTED_EDGE('',*,*,#366,.F.);
#268=ORIENTED_EDGE('',*,*,#367,.F.);
#269=CARTESIAN_POINT('',(-6.49999999997973,30.0,-1.04994412080407E-014));
#270=DIRECTION('',(-1.0,0.0,0.0));
#271=DIRECTION('',(0.0,-1.0,0.0));
#272=SURFACE_STYLE_FILL_AREA(#368);
#273=ORIENTED_EDGE('',*,*,#358,.T.);
#274=ORIENTED_EDGE('',*,*,#369,.F.);
#275=CARTESIAN_POINT('',(9.49999999999974,0.0,0.0));
#276=DIRECTION('',(-1.0,0.0,0.0));
#277=DIRECTION('',(0.0,0.0,1.0));
#278=SURFACE_STYLE_FILL_AREA(#370);
#279=ORIENTED_EDGE('',*,*,#371,.F.);
#280=ORIENTED_EDGE('',*,*,#372,.F.);
#281=CARTESIAN_POINT('',(-6.49999999997973,15.0,25.9807621135331));
#282=DIRECTION('',(-1.0,-0.0,0.0));
#283=DIRECTION('',(0.0,-0.5,-0.866025403784439));
#284=SURFACE_STYLE_FILL_AREA(#373);
#285=ORIENTED_EDGE('',*,*,#374,.T.);
#286=ORIENTED_EDGE('',*,*,#375,.T.);
#287=ORIENTED_EDGE('',*,*,#376,.T.);
#288=ORIENTED_EDGE('',*,*,#377,.T.);
#289=ORIENTED_EDGE('',*,*,#371,.T.);
#290=ORIENTED_EDGE('',*,*,#366,.T.);
#291=ORIENTED_EDGE('',*,*,#363,.T.);
#292=ORIENTED_EDGE('',*,*,#378,.T.);
#293=CARTESIAN_POINT('',(-25.5,35.0,-1.04994412080407E-014));
#294=DIRECTION('',(1.0,0.0,0.0));
#295=DIRECTION('',(0.0,0.0,-1.0));
#296=SURFACE_STYLE_FILL_AREA(#379);
#297=ORIENTED_EDGE('',*,*,#376,.F.);
#298=ORIENTED_EDGE('',*,*,#380,.F.);
#299=CARTESIAN_POINT('',(-6.49999999997973,-30.0,1.41733816054828E-014));
#300=DIRECTION('',(-1.0,0.0,0.0));
#301=DIRECTION('',(0.0,1.0,-1.22464679914735E-016));
#302=SURFACE_STYLE_FILL_AREA(#381);
#303=ORIENTED_EDGE('',*,*,#382,.T.);
#304=ORIENTED_EDGE('',*,*,#369,.T.);
#305=CARTESIAN_POINT('',(0.0,0.0,0.0));
#306=DIRECTION('',(-1.0,0.0,0.0));
#307=DIRECTION('',(0.0,0.0,1.0));
#308=SURFACE_STYLE_FILL_AREA(#383);
#309=ORIENTED_EDGE('',*,*,#378,.F.);
#310=ORIENTED_EDGE('',*,*,#384,.T.);
#311=CARTESIAN_POINT('',(0.0,0.0,0.0));
#312=DIRECTION('',(-1.0,0.0,0.0));
#313=DIRECTION('',(0.0,0.0,1.0));
#314=SURFACE_STYLE_FILL_AREA(#385);
#315=ORIENTED_EDGE('',*,*,#374,.F.);
#316=ORIENTED_EDGE('',*,*,#386,.F.);
#317=CARTESIAN_POINT('',(-6.49999999997973,15.0,-25.9807621135331));
#318=DIRECTION('',(-1.0,0.0,0.0));
#319=DIRECTION('',(0.0,-0.5,0.866025403784439));
#320=SURFACE_STYLE_FILL_AREA(#387);
#321=ORIENTED_EDGE('',*,*,#364,.T.);
#322=ORIENTED_EDGE('',*,*,#382,.F.);
#323=CARTESIAN_POINT('',(-13.5000000000003,0.0,0.0));
#324=DIRECTION('',(1.0,0.0,0.0));
#325=DIRECTION('',(0.0,0.0,-1.0));
#326=SURFACE_STYLE_FILL_AREA(#388);
#327=ORIENTED_EDGE('',*,*,#375,.F.);
#328=ORIENTED_EDGE('',*,*,#389,.F.);
#329=CARTESIAN_POINT('',(-6.49999999997973,-15.0,-25.9807621135331));
#330=DIRECTION('',(-1.0,0.0,0.0));
#331=DIRECTION('',(0.0,0.5,0.866025403784438));
#332=SURFACE_STYLE_FILL_AREA(#390);
#333=ORIENTED_EDGE('',*,*,#386,.T.);
#334=ORIENTED_EDGE('',*,*,#389,.T.);
#335=ORIENTED_EDGE('',*,*,#380,.T.);
#336=ORIENTED_EDGE('',*,*,#391,.T.);
#337=ORIENTED_EDGE('',*,*,#372,.T.);
#338=ORIENTED_EDGE('',*,*,#367,.T.);
#339=ORIENTED_EDGE('',*,*,#384,.F.);
#340=ORIENTED_EDGE('',*,*,#360,.T.);
#341=CARTESIAN_POINT('',(-9.0,24.0,0.0));
#342=DIRECTION('',(-1.0,0.0,0.0));
#343=DIRECTION('',(0.0,0.0,1.0));
#344=SURFACE_STYLE_FILL_AREA(#392);
#345=ORIENTED_EDGE('',*,*,#377,.F.);
#346=ORIENTED_EDGE('',*,*,#391,.F.);
#347=CARTESIAN_POINT('',(-6.49999999997973,-15.0,25.9807621135331));
#348=DIRECTION('',(-1.0,0.0,0.0));
#349=DIRECTION('',(0.0,0.5,-0.866025403784439));
#350=SURFACE_STYLE_FILL_AREA(#393);
#351=ORIENTED_EDGE('',*,*,#357,.T.);
#352=ORIENTED_EDGE('',*,*,#361,.F.);
#353=CARTESIAN_POINT('',(21.4999999999998,18.5,-1.04994412080407E-014));
#354=DIRECTION('',(-1.0,0.0,0.0));
#355=DIRECTION('',(0.0,0.0,1.0));
#356=FILL_AREA_STYLE('',(#394));
#357=EDGE_CURVE('',#395,#395,#396,.T.);
#358=EDGE_CURVE('',#397,#397,#398,.T.);
#359=FILL_AREA_STYLE('',(#399));
#360=EDGE_CURVE('',#400,#400,#401,.T.);
#361=EDGE_CURVE('',#402,#402,#403,.T.);
#362=FILL_AREA_STYLE('',(#404));
#363=EDGE_CURVE('',#405,#405,#406,.T.);
#364=EDGE_CURVE('',#407,#407,#408,.T.);
#365=FILL_AREA_STYLE('',(#409));
#366=EDGE_CURVE('',#410,#410,#411,.T.);
#367=EDGE_CURVE('',#412,#412,#413,.T.);
#368=FILL_AREA_STYLE('',(#414));
#369=EDGE_CURVE('',#415,#415,#416,.F.);
#370=FILL_AREA_STYLE('',(#417));
#371=EDGE_CURVE('',#418,#418,#419,.T.);
#372=EDGE_CURVE('',#420,#420,#421,.T.);
#373=FILL_AREA_STYLE('',(#422));
#374=EDGE_CURVE('',#423,#423,#424,.T.);
#375=EDGE_CURVE('',#425,#425,#426,.T.);
#376=EDGE_CURVE('',#427,#427,#428,.T.);
#377=EDGE_CURVE('',#429,#429,#430,.T.);
#378=EDGE_CURVE('',#431,#431,#432,.T.);
#379=FILL_AREA_STYLE('',(#433));
#380=EDGE_CURVE('',#434,#434,#435,.T.);
#381=FILL_AREA_STYLE('',(#436));
#382=EDGE_CURVE('',#437,#437,#438,.F.);
#383=FILL_AREA_STYLE('',(#439));
#384=EDGE_CURVE('',#440,#440,#441,.T.);
#385=FILL_AREA_STYLE('',(#442));
#386=EDGE_CURVE('',#443,#443,#444,.T.);
#387=FILL_AREA_STYLE('',(#445));
#388=FILL_AREA_STYLE('',(#446));
#389=EDGE_CURVE('',#447,#447,#448,.T.);
#390=FILL_AREA_STYLE('',(#449));
#391=EDGE_CURVE('',#450,#450,#451,.T.);
#392=FILL_AREA_STYLE('',(#452));
#393=FILL_AREA_STYLE('',(#453));
#394=FILL_AREA_STYLE_COLOUR('',#454);
#395=VERTEX_POINT('',#455);
#396=CIRCLE('',#456,21.0);
#397=VERTEX_POINT('',#457);
#398=CIRCLE('',#458,21.0);
#399=FILL_AREA_STYLE_COLOUR('',#459);
#400=VERTEX_POINT('',#460);
#401=CIRCLE('',#461,24.0);
#402=VERTEX_POINT('',#462);
#403=CIRCLE('',#463,24.0);
#404=FILL_AREA_STYLE_COLOUR('',#464);
#405=VERTEX_POINT('',#465);
#406=CIRCLE('',#466,21.0);
#407=VERTEX_POINT('',#467);
#408=CIRCLE('',#468,21.0);
#409=FILL_AREA_STYLE_COLOUR('',#469);
#410=VERTEX_POINT('',#470);
#411=CIRCLE('',#471,2.5);
#412=VERTEX_POINT('',#472);
#413=CIRCLE('',#473,2.5);
#414=FILL_AREA_STYLE_COLOUR('',#474);
#415=VERTEX_POINT('',#475);
#416=CIRCLE('',#476,18.5);
#417=FILL_AREA_STYLE_COLOUR('',#477);
#418=VERTEX_POINT('',#478);
#419=CIRCLE('',#479,2.5);
#420=VERTEX_POINT('',#480);
#421=CIRCLE('',#481,2.5);
#422=FILL_AREA_STYLE_COLOUR('',#482);
#423=VERTEX_POINT('',#483);
#424=CIRCLE('',#484,2.5);
#425=VERTEX_POINT('',#485);
#426=CIRCLE('',#486,2.5);
#427=VERTEX_POINT('',#487);
#428=CIRCLE('',#488,2.5);
#429=VERTEX_POINT('',#489);
#430=CIRCLE('',#490,2.5);
#431=VERTEX_POINT('',#491);
#432=CIRCLE('',#492,35.0);
#433=FILL_AREA_STYLE_COLOUR('',#493);
#434=VERTEX_POINT('',#494);
#435=CIRCLE('',#495,2.5);
#436=FILL_AREA_STYLE_COLOUR('',#496);
#437=VERTEX_POINT('',#497);
#438=CIRCLE('',#498,18.5);
#439=FILL_AREA_STYLE_COLOUR('',#499);
#440=VERTEX_POINT('',#500);
#441=CIRCLE('',#501,35.0);
#442=FILL_AREA_STYLE_COLOUR('',#502);
#443=VERTEX_POINT('',#503);
#444=CIRCLE('',#504,2.5);
#445=FILL_AREA_STYLE_COLOUR('',#505);
#446=FILL_AREA_STYLE_COLOUR('',#506);
#447=VERTEX_POINT('',#507);
#448=CIRCLE('',#508,2.5);
#449=FILL_AREA_STYLE_COLOUR('',#509);
#450=VERTEX_POINT('',#510);
#451=CIRCLE('',#511,2.5);
#452=FILL_AREA_STYLE_COLOUR('',#512);
#453=FILL_AREA_STYLE_COLOUR('',#513);
#454=COLOUR_RGB('',1.0,1.0,0.0);
#455=CARTESIAN_POINT('',(21.4999999999998,21.0,0.0));
#456=AXIS2_PLACEMENT_3D('',#514,#515,#516);
#457=CARTESIAN_POINT('',(9.49999999999974,21.0,0.0));
#458=AXIS2_PLACEMENT_3D('',#517,#518,#519);
#459=COLOUR_RGB('',1.0,1.0,0.0);
#460=CARTESIAN_POINT('',(-9.0,0.0,24.0));
#461=AXIS2_PLACEMENT_3D('',#520,#521,#522);
#462=CARTESIAN_POINT('',(21.4999999999998,0.0,24.0));
#463=AXIS2_PLACEMENT_3D('',#523,#524,#525);
#464=COLOUR_RGB('',1.0,1.0,0.0);
#465=CARTESIAN_POINT('',(-25.5,-21.0,0.0));
#466=AXIS2_PLACEMENT_3D('',#526,#527,#528);
#467=CARTESIAN_POINT('',(-13.5000000000003,-21.0,0.0));
#468=AXIS2_PLACEMENT_3D('',#529,#530,#531);
#469=COLOUR_RGB('',1.0,1.0,0.0);
#470=CARTESIAN_POINT('',(-25.5,27.5,-1.04994412080407E-014));
#471=AXIS2_PLACEMENT_3D('',#532,#533,#534);
#472=CARTESIAN_POINT('',(-9.0,30.0,2.49999999999999));
#473=AXIS2_PLACEMENT_3D('',#535,#536,#537);
#474=COLOUR_RGB('',1.0,1.0,0.0);
#475=CARTESIAN_POINT('',(9.49999999999974,-4.53119315684521E-015,18.5));
#476=AXIS2_PLACEMENT_3D('',#538,#539,#540);
#477=COLOUR_RGB('',1.0,1.0,0.0);
#478=CARTESIAN_POINT('',(-25.5,13.75,23.8156986040721));
#479=AXIS2_PLACEMENT_3D('',#541,#542,#543);
#480=CARTESIAN_POINT('',(-9.0,15.0,28.4807621135331));
#481=AXIS2_PLACEMENT_3D('',#544,#545,#546);
#482=COLOUR_RGB('',1.0,1.0,0.0);
#483=CARTESIAN_POINT('',(-25.5,13.75,-23.8156986040721));
#484=AXIS2_PLACEMENT_3D('',#547,#548,#549);
#485=CARTESIAN_POINT('',(-25.5,-13.75,-23.8156986040721));
#486=AXIS2_PLACEMENT_3D('',#550,#551,#552);
#487=CARTESIAN_POINT('',(-25.5,-27.5,1.38672199056959E-014));
#488=AXIS2_PLACEMENT_3D('',#553,#554,#555);
#489=CARTESIAN_POINT('',(-25.5,-13.75,23.8156986040721));
#490=AXIS2_PLACEMENT_3D('',#556,#557,#558);
#491=CARTESIAN_POINT('',(-25.5,0.0,35.0));
#492=AXIS2_PLACEMENT_3D('',#559,#560,#561);
#493=COLOUR_RGB('',1.0,1.0,0.0);
#494=CARTESIAN_POINT('',(-9.0,-30.0,2.50000000000001));
#495=AXIS2_PLACEMENT_3D('',#562,#563,#564);
#496=COLOUR_RGB('',1.0,1.0,0.0);
#497=CARTESIAN_POINT('',(-13.5000000000003,-4.53119315684521E-015,-18.5));
#498=AXIS2_PLACEMENT_3D('',#565,#566,#567);
#499=COLOUR_RGB('',1.0,1.0,0.0);
#500=CARTESIAN_POINT('',(-9.0,0.0,35.0));
#501=AXIS2_PLACEMENT_3D('',#568,#569,#570);
#502=COLOUR_RGB('',1.0,1.0,0.0);
#503=CARTESIAN_POINT('',(-9.0,15.0,-23.4807621135331));
#504=AXIS2_PLACEMENT_3D('',#571,#572,#573);
#505=COLOUR_RGB('',1.0,1.0,0.0);
#506=COLOUR_RGB('',1.0,1.0,0.0);
#507=CARTESIAN_POINT('',(-9.0,-15.0,-23.4807621135331));
#508=AXIS2_PLACEMENT_3D('',#574,#575,#576);
#509=COLOUR_RGB('',1.0,1.0,0.0);
#510=CARTESIAN_POINT('',(-9.0,-15.0,28.4807621135331));
#511=AXIS2_PLACEMENT_3D('',#577,#578,#579);
#512=COLOUR_RGB('',1.0,1.0,0.0);
#513=COLOUR_RGB('',1.0,1.0,0.0);
#514=CARTESIAN_POINT('',(21.4999999999998,0.0,0.0));
#515=DIRECTION('',(-1.0,0.0,0.0));
#516=DIRECTION('',(0.0,1.0,0.0));
#517=CARTESIAN_POINT('',(9.49999999999974,0.0,0.0));
#518=DIRECTION('',(1.0,0.0,0.0));
#519=DIRECTION('',(0.0,1.0,0.0));
#520=CARTESIAN_POINT('',(-9.0,0.0,0.0));
#521=DIRECTION('',(-1.0,0.0,0.0));
#522=DIRECTION('',(0.0,0.0,1.0));
#523=CARTESIAN_POINT('',(21.4999999999998,0.0,0.0));
#524=DIRECTION('',(-1.0,0.0,0.0));
#525=DIRECTION('',(0.0,0.0,1.0));
#526=CARTESIAN_POINT('',(-25.5,0.0,0.0));
#527=DIRECTION('',(1.0,0.0,0.0));
#528=DIRECTION('',(0.0,-1.0,0.0));
#529=CARTESIAN_POINT('',(-13.5000000000003,0.0,0.0));
#530=DIRECTION('',(-1.0,0.0,0.0));
#531=DIRECTION('',(0.0,-1.0,0.0));
#532=CARTESIAN_POINT('',(-25.5,30.0,-1.04994412080407E-014));
#533=DIRECTION('',(1.0,0.0,0.0));
#534=DIRECTION('',(0.0,-1.0,0.0));
#535=CARTESIAN_POINT('',(-9.0,30.0,-1.04994412080407E-014));
#536=DIRECTION('',(-1.0,0.0,0.0));
#537=DIRECTION('',(0.0,0.0,1.0));
#538=CARTESIAN_POINT('',(9.49999999999974,0.0,0.0));
#539=DIRECTION('',(-1.0,0.0,0.0));
#540=DIRECTION('',(0.0,0.0,1.0));
#541=CARTESIAN_POINT('',(-25.5,15.0,25.9807621135331));
#542=DIRECTION('',(1.0,0.0,0.0));
#543=DIRECTION('',(0.0,-0.5,-0.866025403784439));
#544=CARTESIAN_POINT('',(-9.0,15.0,25.9807621135331));
#545=DIRECTION('',(-1.0,0.0,0.0));
#546=DIRECTION('',(0.0,0.0,1.0));
#547=CARTESIAN_POINT('',(-25.5,15.0,-25.9807621135331));
#548=DIRECTION('',(1.0,0.0,0.0));
#549=DIRECTION('',(0.0,-0.5,0.866025403784439));
#550=CARTESIAN_POINT('',(-25.5,-15.0,-25.9807621135331));
#551=DIRECTION('',(1.0,0.0,-0.0));
#552=DIRECTION('',(0.0,0.5,0.866025403784438));
#553=CARTESIAN_POINT('',(-25.5,-30.0,1.41733816054828E-014));
#554=DIRECTION('',(1.0,0.0,0.0));
#555=DIRECTION('',(0.0,1.0,-1.22464679914735E-016));
#556=CARTESIAN_POINT('',(-25.5,-15.0,25.9807621135331));
#557=DIRECTION('',(1.0,0.0,0.0));
#558=DIRECTION('',(0.0,0.5,-0.866025403784439));
#559=CARTESIAN_POINT('',(-25.5,0.0,0.0));
#560=DIRECTION('',(-1.0,0.0,0.0));
#561=DIRECTION('',(0.0,0.0,1.0));
#562=CARTESIAN_POINT('',(-9.0,-30.0,1.41733816054828E-014));
#563=DIRECTION('',(-1.0,0.0,0.0));
#564=DIRECTION('',(0.0,0.0,1.0));
#565=CARTESIAN_POINT('',(-13.5000000000003,0.0,0.0));
#566=DIRECTION('',(1.0,0.0,0.0));
#567=DIRECTION('',(0.0,0.0,-1.0));
#568=CARTESIAN_POINT('',(-9.0,0.0,0.0));
#569=DIRECTION('',(-1.0,0.0,0.0));
#570=DIRECTION('',(0.0,0.0,1.0));
#571=CARTESIAN_POINT('',(-9.0,15.0,-25.9807621135331));
#572=DIRECTION('',(-1.0,0.0,0.0));
#573=DIRECTION('',(0.0,0.0,1.0));
#574=CARTESIAN_POINT('',(-9.0,-15.0,-25.9807621135331));
#575=DIRECTION('',(-1.0,0.0,0.0));
#576=DIRECTION('',(0.0,0.0,1.0));
#577=CARTESIAN_POINT('',(-9.0,-15.0,25.9807621135331));
#578=DIRECTION('',(-1.0,0.0,0.0));
#579=DIRECTION('',(0.0,0.0,1.0));
#580=PRESENTATION_LAYER_ASSIGNMENT('8','',(#73));
ENDSEC;
END-ISO-10303-21;
