ISO-10303-21;
HEADER;
FILE_DESCRIPTION(('STEP AP214'),'1');
FILE_NAME('BMR-015a BIELLETTE CENTRALE 800.step','2016-02-17T20:52:46',(' '),(' '),'Spatial InterOp 3D',' ',' ');
FILE_SCHEMA(('automotive_design'));
ENDSEC;
DATA;
#1=MECHANICAL_DESIGN_GEOMETRIC_PRESENTATION_REPRESENTATION(' ',(#10,#11,#12,#13,#14,#15,#16,#17,#18,#19,#20,#21),#6);
#2=PRODUCT_DEFINITION_CONTEXT('',#22,'design');
#3=APPLICATION_PROTOCOL_DEFINITION('INTERNATIONAL STANDARD','automotive_design',1994,#22);
#4=PRODUCT_CATEGORY_RELATIONSHIP('NONE','NONE',#23,#24);
#5=SHAPE_DEFINITION_REPRESENTATION(#25,#26);
#6= (GEOMETRIC_REPRESENTATION_CONTEXT(3)GLOBAL_UNCERTAINTY_ASSIGNED_CONTEXT((#29))GLOBAL_UNIT_ASSIGNED_CONTEXT((#31,#32,#33))REPRESENTATION_CONTEXT('NONE','WORKSPACE'));
#10=STYLED_ITEM('',(#35),#36);
#11=STYLED_ITEM('',(#37),#38);
#12=STYLED_ITEM('',(#39),#40);
#13=STYLED_ITEM('',(#41),#42);
#14=STYLED_ITEM('',(#43),#44);
#15=STYLED_ITEM('',(#45),#46);
#16=STYLED_ITEM('',(#47),#48);
#17=STYLED_ITEM('',(#49),#50);
#18=STYLED_ITEM('',(#51),#52);
#19=STYLED_ITEM('',(#53),#54);
#20=STYLED_ITEM('',(#55),#56);
#21=STYLED_ITEM('',(#57),#58);
#22=APPLICATION_CONTEXT(' ');
#23=PRODUCT_CATEGORY('part','NONE');
#24=PRODUCT_RELATED_PRODUCT_CATEGORY('detail',' ',(#59));
#25=PRODUCT_DEFINITION_SHAPE('NONE','NONE',#60);
#26=ADVANCED_BREP_SHAPE_REPRESENTATION('BIELLETTE CENTRALE 800',(#61,#62),#6);
#29=UNCERTAINTY_MEASURE_WITH_UNIT(LENGTH_MEASURE(0.001),#31,'','');
#31= (CONVERSION_BASED_UNIT('MILLIMETRE',#65)LENGTH_UNIT()NAMED_UNIT(#68));
#32= (NAMED_UNIT(#70)PLANE_ANGLE_UNIT()SI_UNIT($,.RADIAN.));
#33= (NAMED_UNIT(#70)SOLID_ANGLE_UNIT()SI_UNIT($,.STERADIAN.));
#35=PRESENTATION_STYLE_ASSIGNMENT((#76));
#36=ADVANCED_FACE('',(#77),#78,.F.);
#37=PRESENTATION_STYLE_ASSIGNMENT((#79));
#38=ADVANCED_FACE('',(#80),#81,.F.);
#39=PRESENTATION_STYLE_ASSIGNMENT((#82));
#40=ADVANCED_FACE('',(#83),#84,.F.);
#41=PRESENTATION_STYLE_ASSIGNMENT((#85));
#42=ADVANCED_FACE('',(#86),#87,.T.);
#43=PRESENTATION_STYLE_ASSIGNMENT((#88));
#44=ADVANCED_FACE('',(#89,#90,#91),#92,.F.);
#45=PRESENTATION_STYLE_ASSIGNMENT((#93));
#46=ADVANCED_FACE('',(#94),#95,.T.);
#47=PRESENTATION_STYLE_ASSIGNMENT((#96));
#48=ADVANCED_FACE('',(#97),#98,.T.);
#49=PRESENTATION_STYLE_ASSIGNMENT((#99));
#50=ADVANCED_FACE('',(#100),#101,.T.);
#51=PRESENTATION_STYLE_ASSIGNMENT((#102));
#52=ADVANCED_FACE('',(#103,#104,#105),#106,.T.);
#53=PRESENTATION_STYLE_ASSIGNMENT((#107));
#54=ADVANCED_FACE('',(#108),#109,.F.);
#55=PRESENTATION_STYLE_ASSIGNMENT((#110));
#56=ADVANCED_FACE('',(#111,#112),#113,.F.);
#57=PRESENTATION_STYLE_ASSIGNMENT((#114));
#58=ADVANCED_FACE('',(#115,#116),#117,.F.);
#59=PRODUCT('BIELLETTE CENTRALE 800','BIELLETTE CENTRALE 800','PART-BIELLETTE CENTRALE 800-DESC',(#118));
#60=PRODUCT_DEFINITION('NONE','NONE',#119,#2);
#61=MANIFOLD_SOLID_BREP('BIELLETTE CENTRALE 800',#120);
#62=AXIS2_PLACEMENT_3D('',#121,#122,#123);
#65=LENGTH_MEASURE_WITH_UNIT(LENGTH_MEASURE(1.0),#124);
#68=DIMENSIONAL_EXPONENTS(1.0,0.0,0.0,0.0,0.0,0.0,0.0);
#70=DIMENSIONAL_EXPONENTS(0.0,0.0,0.0,0.0,0.0,0.0,0.0);
#76=SURFACE_STYLE_USAGE(.BOTH.,#125);
#77=FACE_OUTER_BOUND('',#126,.T.);
#78=PLANE('',#127);
#79=SURFACE_STYLE_USAGE(.BOTH.,#128);
#80=FACE_OUTER_BOUND('',#129,.T.);
#81=PLANE('',#130);
#82=SURFACE_STYLE_USAGE(.BOTH.,#131);
#83=FACE_OUTER_BOUND('',#132,.T.);
#84=PLANE('',#133);
#85=SURFACE_STYLE_USAGE(.BOTH.,#134);
#86=FACE_OUTER_BOUND('',#135,.T.);
#87=PLANE('',#136);
#88=SURFACE_STYLE_USAGE(.BOTH.,#137);
#89=FACE_BOUND('',#138,.T.);
#90=FACE_OUTER_BOUND('',#139,.T.);
#91=FACE_BOUND('',#140,.T.);
#92=PLANE('',#141);
#93=SURFACE_STYLE_USAGE(.BOTH.,#142);
#94=FACE_OUTER_BOUND('',#143,.T.);
#95=PLANE('',#144);
#96=SURFACE_STYLE_USAGE(.BOTH.,#145);
#97=FACE_OUTER_BOUND('',#146,.T.);
#98=PLANE('',#147);
#99=SURFACE_STYLE_USAGE(.BOTH.,#148);
#100=FACE_OUTER_BOUND('',#149,.T.);
#101=PLANE('',#150);
#102=SURFACE_STYLE_USAGE(.BOTH.,#151);
#103=FACE_BOUND('',#152,.T.);
#104=FACE_OUTER_BOUND('',#153,.T.);
#105=FACE_BOUND('',#154,.T.);
#106=PLANE('',#155);
#107=SURFACE_STYLE_USAGE(.BOTH.,#156);
#108=FACE_OUTER_BOUND('',#157,.T.);
#109=PLANE('',#158);
#110=SURFACE_STYLE_USAGE(.BOTH.,#159);
#111=FACE_OUTER_BOUND('',#160,.T.);
#112=FACE_OUTER_BOUND('',#161,.T.);
#113=CYLINDRICAL_SURFACE('',#162,3.37500000000079);
#114=SURFACE_STYLE_USAGE(.BOTH.,#163);
#115=FACE_OUTER_BOUND('',#164,.T.);
#116=FACE_OUTER_BOUND('',#165,.T.);
#117=CYLINDRICAL_SURFACE('',#166,3.37500000000079);
#118=PRODUCT_CONTEXT('',#22,'mechanical');
#119=PRODUCT_DEFINITION_FORMATION_WITH_SPECIFIED_SOURCE(' ','NONE',#59,.NOT_KNOWN.);
#120=CLOSED_SHELL('',(#56,#58,#52,#48,#50,#36,#54,#38,#40,#44,#46,#42));
#121=CARTESIAN_POINT('',(0.0,0.0,0.0));
#122=DIRECTION('',(0.0,0.0,1.0));
#123=DIRECTION('',(1.0,0.0,0.0));
#124= (NAMED_UNIT(#68)LENGTH_UNIT()SI_UNIT(.MILLI.,.METRE.));
#125=SURFACE_SIDE_STYLE('',(#168));
#126=EDGE_LOOP('',(#169,#170,#171,#172));
#127=AXIS2_PLACEMENT_3D('',#173,#174,#175);
#128=SURFACE_SIDE_STYLE('',(#176));
#129=EDGE_LOOP('',(#177,#178,#179,#180));
#130=AXIS2_PLACEMENT_3D('',#181,#182,#183);
#131=SURFACE_SIDE_STYLE('',(#184));
#132=EDGE_LOOP('',(#185,#186,#187,#188));
#133=AXIS2_PLACEMENT_3D('',#189,#190,#191);
#134=SURFACE_SIDE_STYLE('',(#192));
#135=EDGE_LOOP('',(#193,#194,#195,#196));
#136=AXIS2_PLACEMENT_3D('',#197,#198,#199);
#137=SURFACE_SIDE_STYLE('',(#200));
#138=EDGE_LOOP('',(#201));
#139=EDGE_LOOP('',(#202,#203,#204,#205,#206,#207,#208,#209));
#140=EDGE_LOOP('',(#210));
#141=AXIS2_PLACEMENT_3D('',#211,#212,#213);
#142=SURFACE_SIDE_STYLE('',(#214));
#143=EDGE_LOOP('',(#215,#216,#217,#218));
#144=AXIS2_PLACEMENT_3D('',#219,#220,#221);
#145=SURFACE_SIDE_STYLE('',(#222));
#146=EDGE_LOOP('',(#223,#224,#225,#226));
#147=AXIS2_PLACEMENT_3D('',#227,#228,#229);
#148=SURFACE_SIDE_STYLE('',(#230));
#149=EDGE_LOOP('',(#231,#232,#233,#234));
#150=AXIS2_PLACEMENT_3D('',#235,#236,#237);
#151=SURFACE_SIDE_STYLE('',(#238));
#152=EDGE_LOOP('',(#239));
#153=EDGE_LOOP('',(#240,#241,#242,#243,#244,#245,#246,#247));
#154=EDGE_LOOP('',(#248));
#155=AXIS2_PLACEMENT_3D('',#249,#250,#251);
#156=SURFACE_SIDE_STYLE('',(#252));
#157=EDGE_LOOP('',(#253,#254,#255,#256));
#158=AXIS2_PLACEMENT_3D('',#257,#258,#259);
#159=SURFACE_SIDE_STYLE('',(#260));
#160=EDGE_LOOP('',(#261));
#161=EDGE_LOOP('',(#262));
#162=AXIS2_PLACEMENT_3D('',#263,#264,#265);
#163=SURFACE_SIDE_STYLE('',(#266));
#164=EDGE_LOOP('',(#267));
#165=EDGE_LOOP('',(#268));
#166=AXIS2_PLACEMENT_3D('',#269,#270,#271);
#168=SURFACE_STYLE_FILL_AREA(#272);
#169=ORIENTED_EDGE('',*,*,#273,.F.);
#170=ORIENTED_EDGE('',*,*,#274,.F.);
#171=ORIENTED_EDGE('',*,*,#275,.F.);
#172=ORIENTED_EDGE('',*,*,#276,.F.);
#173=CARTESIAN_POINT('',(438.074501672793,95.1342342330228,66.0000000000028));
#174=DIRECTION('',(-0.486122462701511,-0.873890697545762,-0.0));
#175=DIRECTION('',(0.0,0.0,-1.0));
#176=SURFACE_STYLE_FILL_AREA(#277);
#177=ORIENTED_EDGE('',*,*,#278,.F.);
#178=ORIENTED_EDGE('',*,*,#279,.F.);
#179=ORIENTED_EDGE('',*,*,#280,.F.);
#180=ORIENTED_EDGE('',*,*,#281,.F.);
#181=CARTESIAN_POINT('',(-138.074501672793,-95.1342342330228,66.0000000000028));
#182=DIRECTION('',(0.486122462701517,0.873890697545758,0.0));
#183=DIRECTION('',(0.0,0.0,-1.0));
#184=SURFACE_STYLE_FILL_AREA(#282);
#185=ORIENTED_EDGE('',*,*,#283,.F.);
#186=ORIENTED_EDGE('',*,*,#284,.F.);
#187=ORIENTED_EDGE('',*,*,#285,.F.);
#188=ORIENTED_EDGE('',*,*,#286,.F.);
#189=CARTESIAN_POINT('',(-150.085447730421,-80.3613816039346,66.0000000000028));
#190=DIRECTION('',(0.873890697545759,-0.486122462701515,0.0));
#191=DIRECTION('',(0.0,0.0,-1.0));
#192=SURFACE_STYLE_FILL_AREA(#287);
#193=ORIENTED_EDGE('',*,*,#288,.F.);
#194=ORIENTED_EDGE('',*,*,#274,.T.);
#195=ORIENTED_EDGE('',*,*,#289,.T.);
#196=ORIENTED_EDGE('',*,*,#290,.T.);
#197=CARTESIAN_POINT('',(445.287060633646,97.1906858459261,66.0000000000028));
#198=DIRECTION('',(0.961674528113794,0.274193548387105,0.0));
#199=DIRECTION('',(-0.274193548387105,0.961674528113794,0.0));
#200=SURFACE_STYLE_FILL_AREA(#291);
#201=ORIENTED_EDGE('',*,*,#292,.T.);
#202=ORIENTED_EDGE('',*,*,#289,.F.);
#203=ORIENTED_EDGE('',*,*,#273,.T.);
#204=ORIENTED_EDGE('',*,*,#293,.F.);
#205=ORIENTED_EDGE('',*,*,#283,.T.);
#206=ORIENTED_EDGE('',*,*,#294,.F.);
#207=ORIENTED_EDGE('',*,*,#278,.T.);
#208=ORIENTED_EDGE('',*,*,#295,.F.);
#209=ORIENTED_EDGE('',*,*,#296,.T.);
#210=ORIENTED_EDGE('',*,*,#297,.T.);
#211=CARTESIAN_POINT('',(-152.141899343324,-73.1488226430812,66.0000000000028));
#212=DIRECTION('',(0.0,0.0,-1.0));
#213=DIRECTION('',(-0.274193548387102,0.961674528113795,0.0));
#214=SURFACE_STYLE_FILL_AREA(#298);
#215=ORIENTED_EDGE('',*,*,#299,.F.);
#216=ORIENTED_EDGE('',*,*,#300,.T.);
#217=ORIENTED_EDGE('',*,*,#295,.T.);
#218=ORIENTED_EDGE('',*,*,#281,.T.);
#219=CARTESIAN_POINT('',(452.141899343324,73.1488226430812,66.0000000000028));
#220=DIRECTION('',(0.274193548387102,-0.961674528113795,0.0));
#221=DIRECTION('',(0.961674528113795,0.274193548387102,0.0));
#222=SURFACE_STYLE_FILL_AREA(#301);
#223=ORIENTED_EDGE('',*,*,#302,.F.);
#224=ORIENTED_EDGE('',*,*,#279,.T.);
#225=ORIENTED_EDGE('',*,*,#294,.T.);
#226=ORIENTED_EDGE('',*,*,#286,.T.);
#227=CARTESIAN_POINT('',(-145.287060633646,-97.190685845926,66.0000000000028));
#228=DIRECTION('',(-0.961674528113795,-0.274193548387102,0.0));
#229=DIRECTION('',(0.274193548387102,-0.961674528113795,0.0));
#230=SURFACE_STYLE_FILL_AREA(#303);
#231=ORIENTED_EDGE('',*,*,#293,.T.);
#232=ORIENTED_EDGE('',*,*,#276,.T.);
#233=ORIENTED_EDGE('',*,*,#304,.F.);
#234=ORIENTED_EDGE('',*,*,#284,.T.);
#235=CARTESIAN_POINT('',(-152.141899343324,-73.1488226430812,66.0000000000028));
#236=DIRECTION('',(-0.274193548387102,0.961674528113795,0.0));
#237=DIRECTION('',(-0.961674528113795,-0.274193548387102,0.0));
#238=SURFACE_STYLE_FILL_AREA(#305);
#239=ORIENTED_EDGE('',*,*,#306,.F.);
#240=ORIENTED_EDGE('',*,*,#304,.T.);
#241=ORIENTED_EDGE('',*,*,#275,.T.);
#242=ORIENTED_EDGE('',*,*,#288,.T.);
#243=ORIENTED_EDGE('',*,*,#307,.T.);
#244=ORIENTED_EDGE('',*,*,#299,.T.);
#245=ORIENTED_EDGE('',*,*,#280,.T.);
#246=ORIENTED_EDGE('',*,*,#302,.T.);
#247=ORIENTED_EDGE('',*,*,#285,.T.);
#248=ORIENTED_EDGE('',*,*,#308,.F.);
#249=CARTESIAN_POINT('',(-152.141899343324,-73.1488226430812,58.0000000000028));
#250=DIRECTION('',(0.0,0.0,-1.0));
#251=DIRECTION('',(-0.274193548387102,0.961674528113795,0.0));
#252=SURFACE_STYLE_FILL_AREA(#309);
#253=ORIENTED_EDGE('',*,*,#296,.F.);
#254=ORIENTED_EDGE('',*,*,#300,.F.);
#255=ORIENTED_EDGE('',*,*,#307,.F.);
#256=ORIENTED_EDGE('',*,*,#290,.F.);
#257=CARTESIAN_POINT('',(450.085447730421,80.3613816039347,66.0000000000028));
#258=DIRECTION('',(-0.87389069754576,0.486122462701514,0.0));
#259=DIRECTION('',(0.0,0.0,-1.0));
#260=SURFACE_STYLE_FILL_AREA(#310);
#261=ORIENTED_EDGE('',*,*,#306,.T.);
#262=ORIENTED_EDGE('',*,*,#292,.F.);
#263=CARTESIAN_POINT('',(436.693548387062,81.7423348896655,45.5000000000062));
#264=DIRECTION('',(3.2833442384177E-022,2.95210648299253E-022,-1.0));
#265=DIRECTION('',(-1.0,2.3053781106336E-013,-3.28334423841702E-022));
#266=SURFACE_STYLE_FILL_AREA(#311);
#267=ORIENTED_EDGE('',*,*,#308,.T.);
#268=ORIENTED_EDGE('',*,*,#297,.F.);
#269=CARTESIAN_POINT('',(-136.693548387062,-81.7423348896655,45.5000000000062));
#270=DIRECTION('',(-3.2833442384177E-022,-2.95210648299253E-022,-1.0));
#271=DIRECTION('',(1.0,-2.30660275743275E-013,-3.28334423841702E-022));
#272=FILL_AREA_STYLE('',(#312));
#273=EDGE_CURVE('',#313,#314,#315,.F.);
#274=EDGE_CURVE('',#316,#313,#317,.T.);
#275=EDGE_CURVE('',#318,#316,#319,.F.);
#276=EDGE_CURVE('',#314,#318,#320,.T.);
#277=FILL_AREA_STYLE('',(#321));
#278=EDGE_CURVE('',#322,#323,#324,.F.);
#279=EDGE_CURVE('',#325,#322,#326,.T.);
#280=EDGE_CURVE('',#327,#325,#328,.F.);
#281=EDGE_CURVE('',#323,#327,#329,.T.);
#282=FILL_AREA_STYLE('',(#330));
#283=EDGE_CURVE('',#331,#332,#333,.F.);
#284=EDGE_CURVE('',#334,#331,#335,.T.);
#285=EDGE_CURVE('',#336,#334,#337,.F.);
#286=EDGE_CURVE('',#332,#336,#338,.T.);
#287=FILL_AREA_STYLE('',(#339));
#288=EDGE_CURVE('',#316,#340,#341,.T.);
#289=EDGE_CURVE('',#313,#342,#343,.T.);
#290=EDGE_CURVE('',#342,#340,#344,.T.);
#291=FILL_AREA_STYLE('',(#345));
#292=EDGE_CURVE('',#346,#346,#347,.T.);
#293=EDGE_CURVE('',#331,#314,#348,.T.);
#294=EDGE_CURVE('',#322,#332,#349,.T.);
#295=EDGE_CURVE('',#350,#323,#351,.T.);
#296=EDGE_CURVE('',#350,#342,#352,.F.);
#297=EDGE_CURVE('',#353,#353,#354,.T.);
#298=FILL_AREA_STYLE('',(#355));
#299=EDGE_CURVE('',#356,#327,#357,.T.);
#300=EDGE_CURVE('',#356,#350,#358,.T.);
#301=FILL_AREA_STYLE('',(#359));
#302=EDGE_CURVE('',#325,#336,#360,.T.);
#303=FILL_AREA_STYLE('',(#361));
#304=EDGE_CURVE('',#334,#318,#362,.T.);
#305=FILL_AREA_STYLE('',(#363));
#306=EDGE_CURVE('',#364,#364,#365,.T.);
#307=EDGE_CURVE('',#340,#356,#366,.F.);
#308=EDGE_CURVE('',#367,#367,#368,.T.);
#309=FILL_AREA_STYLE('',(#369));
#310=FILL_AREA_STYLE('',(#370));
#311=FILL_AREA_STYLE('',(#371));
#312=FILL_AREA_STYLE_COLOUR('',#372);
#313=VERTEX_POINT('',#373);
#314=VERTEX_POINT('',#374);
#315=LINE('',#375,#376);
#316=VERTEX_POINT('',#377);
#317=LINE('',#378,#379);
#318=VERTEX_POINT('',#380);
#319=LINE('',#381,#382);
#320=LINE('',#383,#384);
#321=FILL_AREA_STYLE_COLOUR('',#385);
#322=VERTEX_POINT('',#386);
#323=VERTEX_POINT('',#387);
#324=LINE('',#388,#389);
#325=VERTEX_POINT('',#390);
#326=LINE('',#391,#392);
#327=VERTEX_POINT('',#393);
#328=LINE('',#394,#395);
#329=LINE('',#396,#397);
#330=FILL_AREA_STYLE_COLOUR('',#398);
#331=VERTEX_POINT('',#399);
#332=VERTEX_POINT('',#400);
#333=LINE('',#401,#402);
#334=VERTEX_POINT('',#403);
#335=LINE('',#404,#405);
#336=VERTEX_POINT('',#406);
#337=LINE('',#407,#408);
#338=LINE('',#409,#410);
#339=FILL_AREA_STYLE_COLOUR('',#411);
#340=VERTEX_POINT('',#412);
#341=LINE('',#413,#414);
#342=VERTEX_POINT('',#415);
#343=LINE('',#416,#417);
#344=LINE('',#418,#419);
#345=FILL_AREA_STYLE_COLOUR('',#420);
#346=VERTEX_POINT('',#421);
#347=CIRCLE('',#422,3.375);
#348=LINE('',#423,#424);
#349=LINE('',#425,#426);
#350=VERTEX_POINT('',#427);
#351=LINE('',#428,#429);
#352=LINE('',#430,#431);
#353=VERTEX_POINT('',#432);
#354=CIRCLE('',#433,3.375);
#355=FILL_AREA_STYLE_COLOUR('',#434);
#356=VERTEX_POINT('',#435);
#357=LINE('',#436,#437);
#358=LINE('',#438,#439);
#359=FILL_AREA_STYLE_COLOUR('',#440);
#360=LINE('',#441,#442);
#361=FILL_AREA_STYLE_COLOUR('',#443);
#362=LINE('',#444,#445);
#363=FILL_AREA_STYLE_COLOUR('',#446);
#364=VERTEX_POINT('',#447);
#365=CIRCLE('',#448,3.375);
#366=LINE('',#449,#450);
#367=VERTEX_POINT('',#451);
#368=CIRCLE('',#452,3.375);
#369=FILL_AREA_STYLE_COLOUR('',#453);
#370=FILL_AREA_STYLE_COLOUR('',#454);
#371=FILL_AREA_STYLE_COLOUR('',#455);
#372=COLOUR_RGB('',1.0,1.0,1.0);
#373=CARTESIAN_POINT('',(447.343512246549,89.9781268850726,66.0000000000028));
#374=CARTESIAN_POINT('',(438.074501672793,95.1342342330228,66.0000000000028));
#375=CARTESIAN_POINT('',(438.074501672793,95.1342342330228,66.0000000000028));
#376=VECTOR('',#456,1.0);
#377=CARTESIAN_POINT('',(447.343512246549,89.9781268850726,58.0000000000028));
#378=CARTESIAN_POINT('',(447.343512246549,89.9781268850726,66.0000000000028));
#379=VECTOR('',#457,1.0);
#380=CARTESIAN_POINT('',(438.074501672793,95.1342342330228,58.0000000000028));
#381=CARTESIAN_POINT('',(58.8247727266797,306.100906303028,58.0000000000028));
#382=VECTOR('',#458,1.0);
#383=CARTESIAN_POINT('',(438.074501672793,95.1342342330228,66.0000000000028));
#384=VECTOR('',#459,1.0);
#385=COLOUR_RGB('',1.0,1.0,1.0);
#386=CARTESIAN_POINT('',(-147.343512246549,-89.9781268850726,66.0000000000028));
#387=CARTESIAN_POINT('',(-138.074501672792,-95.1342342330227,66.0000000000028));
#388=CARTESIAN_POINT('',(-138.074501672793,-95.1342342330228,66.0000000000028));
#389=VECTOR('',#460,1.0);
#390=CARTESIAN_POINT('',(-147.343512246549,-89.9781268850726,58.0000000000028));
#391=CARTESIAN_POINT('',(-147.343512246549,-89.9781268850726,66.0000000000028));
#392=VECTOR('',#461,1.0);
#393=CARTESIAN_POINT('',(-138.074501672792,-95.1342342330228,58.0000000000028));
#394=CARTESIAN_POINT('',(-158.157357915932,-83.962668312464,58.0000000000028));
#395=VECTOR('',#462,1.0);
#396=CARTESIAN_POINT('',(-138.074501672793,-95.1342342330228,66.0000000000028));
#397=VECTOR('',#463,1.0);
#398=COLOUR_RGB('',1.0,1.0,1.0);
#399=CARTESIAN_POINT('',(-144.92934038247,-71.0923710301779,66.0000000000028));
#400=CARTESIAN_POINT('',(-150.085447730421,-80.3613816039346,66.0000000000028));
#401=CARTESIAN_POINT('',(-150.085447730421,-80.3613816039346,66.0000000000028));
#402=VECTOR('',#464,1.0);
#403=CARTESIAN_POINT('',(-144.92934038247,-71.0923710301779,58.0000000000028));
#404=CARTESIAN_POINT('',(-144.92934038247,-71.0923710301779,66.0000000000028));
#405=VECTOR('',#465,1.0);
#406=CARTESIAN_POINT('',(-150.085447730421,-80.3613816039346,58.0000000000028));
#407=CARTESIAN_POINT('',(-147.507394056445,-75.7268763170562,58.0000000000028));
#408=VECTOR('',#466,1.0);
#409=CARTESIAN_POINT('',(-150.085447730421,-80.3613816039346,66.0000000000028));
#410=VECTOR('',#467,1.0);
#411=COLOUR_RGB('',1.0,1.0,1.0);
#412=CARTESIAN_POINT('',(450.085447730421,80.3613816039348,58.0000000000028));
#413=CARTESIAN_POINT('',(445.287060633646,97.1906858459261,58.0000000000028));
#414=VECTOR('',#468,1.0);
#415=CARTESIAN_POINT('',(450.085447730421,80.3613816039347,66.0000000000028));
#416=CARTESIAN_POINT('',(445.287060633646,97.1906858459261,66.0000000000028));
#417=VECTOR('',#469,1.0);
#418=CARTESIAN_POINT('',(450.085447730421,80.3613816039347,66.0000000000028));
#419=VECTOR('',#470,1.0);
#420=COLOUR_RGB('',1.0,1.0,1.0);
#421=CARTESIAN_POINT('',(433.318548387062,81.7423348896655,66.0000000000028));
#422=AXIS2_PLACEMENT_3D('',#471,#472,#473);
#423=CARTESIAN_POINT('',(-152.141899343324,-73.1488226430812,66.0000000000028));
#424=VECTOR('',#474,1.0);
#425=CARTESIAN_POINT('',(-145.287060633646,-97.190685845926,66.0000000000028));
#426=VECTOR('',#475,1.0);
#427=CARTESIAN_POINT('',(444.929340382471,71.0923710301779,66.0000000000028));
#428=CARTESIAN_POINT('',(452.141899343324,73.1488226430812,66.0000000000028));
#429=VECTOR('',#476,1.0);
#430=CARTESIAN_POINT('',(450.085447730421,80.3613816039347,66.0000000000028));
#431=VECTOR('',#477,1.0);
#432=CARTESIAN_POINT('',(-133.318548387062,-81.7423348896655,66.0000000000028));
#433=AXIS2_PLACEMENT_3D('',#478,#479,#480);
#434=COLOUR_RGB('',1.0,1.0,1.0);
#435=CARTESIAN_POINT('',(444.929340382471,71.0923710301779,58.0000000000028));
#436=CARTESIAN_POINT('',(452.141899343324,73.1488226430812,58.0000000000028));
#437=VECTOR('',#481,1.0);
#438=CARTESIAN_POINT('',(444.929340382471,71.0923710301779,66.0000000000028));
#439=VECTOR('',#482,1.0);
#440=COLOUR_RGB('',1.0,1.0,1.0);
#441=CARTESIAN_POINT('',(-145.287060633646,-97.190685845926,58.0000000000028));
#442=VECTOR('',#483,1.0);
#443=COLOUR_RGB('',1.0,1.0,1.0);
#444=CARTESIAN_POINT('',(-152.141899343324,-73.1488226430812,58.0000000000028));
#445=VECTOR('',#484,1.0);
#446=COLOUR_RGB('',1.0,1.0,1.0);
#447=CARTESIAN_POINT('',(433.318548387062,81.7423348896655,58.0000000000028));
#448=AXIS2_PLACEMENT_3D('',#485,#486,#487);
#449=CARTESIAN_POINT('',(242.556180559049,-292.709006959671,58.0000000000028));
#450=VECTOR('',#488,1.0);
#451=CARTESIAN_POINT('',(-133.318548387062,-81.7423348896655,58.0000000000028));
#452=AXIS2_PLACEMENT_3D('',#489,#490,#491);
#453=COLOUR_RGB('',1.0,1.0,1.0);
#454=COLOUR_RGB('',1.0,1.0,1.0);
#455=COLOUR_RGB('',1.0,1.0,1.0);
#456=DIRECTION('',(0.873890697545762,-0.486122462701511,0.0));
#457=DIRECTION('',(0.0,0.0,1.0));
#458=DIRECTION('',(-0.873890697545762,0.486122462701511,0.0));
#459=DIRECTION('',(0.0,0.0,-1.0));
#460=DIRECTION('',(-0.873890697545758,0.486122462701517,0.0));
#461=DIRECTION('',(0.0,0.0,1.0));
#462=DIRECTION('',(0.873890697545758,-0.486122462701517,0.0));
#463=DIRECTION('',(0.0,0.0,-1.0));
#464=DIRECTION('',(0.486122462701515,0.873890697545759,0.0));
#465=DIRECTION('',(0.0,0.0,1.0));
#466=DIRECTION('',(-0.486122462701515,-0.873890697545759,0.0));
#467=DIRECTION('',(0.0,0.0,-1.0));
#468=DIRECTION('',(0.274193548387105,-0.961674528113794,0.0));
#469=DIRECTION('',(0.274193548387105,-0.961674528113794,0.0));
#470=DIRECTION('',(0.0,0.0,-1.0));
#471=CARTESIAN_POINT('',(436.693548387062,81.7423348896655,66.0000000000028));
#472=DIRECTION('',(0.0,0.0,-1.0));
#473=DIRECTION('',(-1.0,0.0,0.0));
#474=DIRECTION('',(0.961674528113795,0.274193548387103,0.0));
#475=DIRECTION('',(-0.274193548387103,0.961674528113795,0.0));
#476=DIRECTION('',(-0.961674528113795,-0.274193548387103,0.0));
#477=DIRECTION('',(-0.486122462701514,-0.87389069754576,0.0));
#478=CARTESIAN_POINT('',(-136.693548387062,-81.7423348896655,66.0000000000028));
#479=DIRECTION('',(0.0,0.0,-1.0));
#480=DIRECTION('',(1.0,-1.22464679914735E-016,0.0));
#481=DIRECTION('',(-0.961674528113795,-0.274193548387103,0.0));
#482=DIRECTION('',(0.0,0.0,1.0));
#483=DIRECTION('',(-0.274193548387103,0.961674528113795,0.0));
#484=DIRECTION('',(0.961674528113795,0.274193548387103,0.0));
#485=CARTESIAN_POINT('',(436.693548387062,81.7423348896655,58.0000000000028));
#486=DIRECTION('',(0.0,0.0,-1.0));
#487=DIRECTION('',(-1.0,0.0,0.0));
#488=DIRECTION('',(0.486122462701514,0.87389069754576,0.0));
#489=CARTESIAN_POINT('',(-136.693548387062,-81.7423348896655,58.0000000000028));
#490=DIRECTION('',(0.0,0.0,-1.0));
#491=DIRECTION('',(1.0,-1.22464679914735E-016,0.0));
#492=PRESENTATION_LAYER_ASSIGNMENT('13','',(#61));
ENDSEC;
END-ISO-10303-21;
