ISO-10303-21;
HEADER;
FILE_DESCRIPTION (( 'STEP AP214' ),
    '1' );
FILE_NAME ('Shim.STEP',
    '2018-07-02T06:50:21',
    ( '' ),
    ( '' ),
    'SwSTEP 2.0',
    'SolidWorks 2017',
    '' );
FILE_SCHEMA (( 'AUTOMOTIVE_DESIGN' ));
ENDSEC;

DATA;
#1 = VERTEX_POINT ( 'NONE', #15 ) ;
#2 = CIRCLE ( 'NONE', #255, 15.85000000000000000 ) ;
#3 = CARTESIAN_POINT ( 'NONE',  ( 17.44999999999999900, 0.0000000000000000000, 97.00000000000000000 ) ) ;
#4 = ORIENTED_EDGE ( 'NONE', *, *, #291, .F. ) ;
#5 = AXIS2_PLACEMENT_3D ( 'NONE', #148, #263, #67 ) ;
#6 = UNCERTAINTY_MEASURE_WITH_UNIT (LENGTH_MEASURE( 1.000000000000000100E-005 ), #285, 'distance_accuracy_value', 'NONE');
#7 = ORIENTED_EDGE ( 'NONE', *, *, #250, .T. ) ;
#8 = PRODUCT ( 'Shim', 'Shim', '', ( #66 ) ) ;
#9 = EDGE_CURVE ( 'NONE', #85, #106, #239, .T. ) ;
#10 = DIRECTION ( 'NONE',  ( 0.0000000000000000000, 0.0000000000000000000, 1.000000000000000000 ) ) ;
#11 = FACE_OUTER_BOUND ( 'NONE', #214, .T. ) ;
#12 = CYLINDRICAL_SURFACE ( 'NONE', #90, 17.44999999999999900 ) ;
#13 = DIRECTION ( 'NONE',  ( 0.0000000000000000000, 0.0000000000000000000, 1.000000000000000000 ) ) ;
#14 = CARTESIAN_POINT ( 'NONE',  ( 0.0000000000000000000, 0.0000000000000000000, 100.0000000000000000 ) ) ;
#15 = CARTESIAN_POINT ( 'NONE',  ( 15.85000000000000000, 1.941065176648555100E-015, 0.0000000000000000000 ) ) ;
#16 = DIRECTION ( 'NONE',  ( 1.000000000000000000, 0.0000000000000000000, 0.0000000000000000000 ) ) ;
#17 = PRODUCT_RELATED_PRODUCT_CATEGORY ( 'part', '', ( #8 ) ) ;
#18 =( NAMED_UNIT ( * ) PLANE_ANGLE_UNIT ( ) SI_UNIT ( $, .RADIAN. ) );
#19 = ORIENTED_EDGE ( 'NONE', *, *, #83, .F. ) ;
#20 = DIRECTION ( 'NONE',  ( 1.000000000000000000, 0.0000000000000000000, 0.0000000000000000000 ) ) ;
#21 = PRODUCT_DEFINITION_SHAPE ( 'NONE', 'NONE',  #142 ) ;
#22 = FILL_AREA_STYLE_COLOUR ( '', #136 ) ;
#23 = FACE_OUTER_BOUND ( 'NONE', #140, .T. ) ;
#24 = AXIS2_PLACEMENT_3D ( 'NONE', #223, #155, #205 ) ;
#25 = ORIENTED_EDGE ( 'NONE', *, *, #165, .F. ) ;
#26 = PRESENTATION_STYLE_ASSIGNMENT (( #47 ) ) ;
#27 = CLOSED_SHELL ( 'NONE', ( #209, #76, #184, #101, #248, #272, #117, #159, #293 ) ) ;
#28 = VERTEX_POINT ( 'NONE', #258 ) ;
#29 = DIRECTION ( 'NONE',  ( 0.0000000000000000000, 0.0000000000000000000, 1.000000000000000000 ) ) ;
#30 = MANIFOLD_SOLID_BREP ( 'Boss.-Extru.2', #27 ) ;
#31 = ORIENTED_EDGE ( 'NONE', *, *, #9, .F. ) ;
#32 = AXIS2_PLACEMENT_3D ( 'NONE', #203, #43, #151 ) ;
#33 = EDGE_CURVE ( 'NONE', #106, #85, #164, .T. ) ;
#34 = DIRECTION ( 'NONE',  ( 1.000000000000000000, 0.0000000000000000000, 0.0000000000000000000 ) ) ;
#35 = ORIENTED_EDGE ( 'NONE', *, *, #273, .T. ) ;
#36 = CYLINDRICAL_SURFACE ( 'NONE', #5, 16.50000000000000000 ) ;
#37 = CARTESIAN_POINT ( 'NONE',  ( 15.85000000000000000, 1.941065176648555100E-015, 100.0000000000000000 ) ) ;
#38 =( NAMED_UNIT ( * ) PLANE_ANGLE_UNIT ( ) SI_UNIT ( $, .RADIAN. ) );
#39 = APPLICATION_PROTOCOL_DEFINITION ( 'draft international standard', 'automotive_design', 1998, #201 ) ;
#40 = AXIS2_PLACEMENT_3D ( 'NONE', #59, #174, #94 ) ;
#41 = CARTESIAN_POINT ( 'NONE',  ( 16.50000000000000000, 2.020667218593133100E-015, 0.0000000000000000000 ) ) ;
#42 = CARTESIAN_POINT ( 'NONE',  ( -17.44999999999999900, 2.137008664512131600E-015, 100.0000000000000000 ) ) ;
#43 = DIRECTION ( 'NONE',  ( 0.0000000000000000000, 0.0000000000000000000, 1.000000000000000000 ) ) ;
#44 = CARTESIAN_POINT ( 'NONE',  ( 0.0000000000000000000, 0.0000000000000000000, 97.00000000000000000 ) ) ;
#45 = ORIENTED_EDGE ( 'NONE', *, *, #63, .T. ) ;
#46 = FACE_OUTER_BOUND ( 'NONE', #58, .T. ) ;
#47 = SURFACE_STYLE_USAGE ( .BOTH. , #154 ) ;
#48 = SURFACE_STYLE_USAGE ( .BOTH. , #225 ) ;
#49 = DIRECTION ( 'NONE',  ( 0.0000000000000000000, 0.0000000000000000000, 1.000000000000000000 ) ) ;
#50 = DIRECTION ( 'NONE',  ( 0.0000000000000000000, 0.0000000000000000000, 1.000000000000000000 ) ) ;
#51 = DIRECTION ( 'NONE',  ( -0.0000000000000000000, -0.0000000000000000000, -1.000000000000000000 ) ) ;
#52 = EDGE_LOOP ( 'NONE', ( #206, #275, #189, #158 ) ) ;
#53 = VERTEX_POINT ( 'NONE', #175 ) ;
#54 = VECTOR ( 'NONE', #13, 1000.000000000000000 ) ;
#55 = AXIS2_PLACEMENT_3D ( 'NONE', #194, #10, #196 ) ;
#56 = CIRCLE ( 'NONE', #55, 17.44999999999999900 ) ;
#57 = AXIS2_PLACEMENT_3D ( 'NONE', #14, #150, #131 ) ;
#58 = EDGE_LOOP ( 'NONE', ( #243, #279, #186, #139 ) ) ;
#59 = CARTESIAN_POINT ( 'NONE',  ( 0.0000000000000000000, 0.0000000000000000000, 100.0000000000000000 ) ) ;
#60 = AXIS2_PLACEMENT_3D ( 'NONE', #138, #103, #119 ) ;
#61 = ORIENTED_EDGE ( 'NONE', *, *, #268, .F. ) ;
#62 = FACE_BOUND ( 'NONE', #95, .T. ) ;
#63 = EDGE_CURVE ( 'NONE', #290, #28, #56, .T. ) ;
#64 = AXIS2_PLACEMENT_3D ( 'NONE', #44, #176, #16 ) ;
#65 = VECTOR ( 'NONE', #69, 1000.000000000000000 ) ;
#66 = PRODUCT_CONTEXT ( 'NONE', #98, 'mechanical' ) ;
#67 = DIRECTION ( 'NONE',  ( -1.000000000000000000, 0.0000000000000000000, 0.0000000000000000000 ) ) ;
#68 = PLANE ( 'NONE',  #276 ) ;
#69 = DIRECTION ( 'NONE',  ( -0.0000000000000000000, -0.0000000000000000000, -1.000000000000000000 ) ) ;
#70 = CARTESIAN_POINT ( 'NONE',  ( 0.0000000000000000000, 0.0000000000000000000, 0.0000000000000000000 ) ) ;
#71 = FILL_AREA_STYLE_COLOUR ( '', #129 ) ;
#72 = DIRECTION ( 'NONE',  ( 1.000000000000000000, 0.0000000000000000000, -0.0000000000000000000 ) ) ;
#73 = EDGE_CURVE ( 'NONE', #115, #1, #170, .T. ) ;
#74 = APPLICATION_PROTOCOL_DEFINITION ( 'draft international standard', 'automotive_design', 1998, #98 ) ;
#75 = EDGE_LOOP ( 'NONE', ( #173, #45 ) ) ;
#76 = ADVANCED_FACE ( 'NONE', ( #23 ), #87, .F. ) ;
#77 = FACE_OUTER_BOUND ( 'NONE', #75, .T. ) ;
#78 = PRESENTATION_STYLE_ASSIGNMENT (( #48 ) ) ;
#79 = CARTESIAN_POINT ( 'NONE',  ( -16.50000000000000000, 0.0000000000000000000, 100.0000000000000000 ) ) ;
#80 = AXIS2_PLACEMENT_3D ( 'NONE', #242, #178, #72 ) ;
#81 = EDGE_LOOP ( 'NONE', ( #7, #270, #217, #19 ) ) ;
#82 = VECTOR ( 'NONE', #92, 1000.000000000000000 ) ;
#83 = EDGE_CURVE ( 'NONE', #145, #28, #244, .T. ) ;
#84 = FACE_OUTER_BOUND ( 'NONE', #227, .T. ) ;
#85 = VERTEX_POINT ( 'NONE', #41 ) ;
#86 = ORIENTED_EDGE ( 'NONE', *, *, #165, .T. ) ;
#87 = CYLINDRICAL_SURFACE ( 'NONE', #156, 15.85000000000000000 ) ;
#88 = CYLINDRICAL_SURFACE ( 'NONE', #40, 16.50000000000000000 ) ;
#89 = DIRECTION ( 'NONE',  ( 0.0000000000000000000, 0.0000000000000000000, 1.000000000000000000 ) ) ;
#90 = AXIS2_PLACEMENT_3D ( 'NONE', #246, #50, #20 ) ;
#91 = DIRECTION ( 'NONE',  ( 1.000000000000000000, 0.0000000000000000000, 0.0000000000000000000 ) ) ;
#92 = DIRECTION ( 'NONE',  ( -0.0000000000000000000, -0.0000000000000000000, -1.000000000000000000 ) ) ;
#93 = EDGE_CURVE ( 'NONE', #120, #180, #292, .T. ) ;
#94 = DIRECTION ( 'NONE',  ( -1.000000000000000000, 0.0000000000000000000, 0.0000000000000000000 ) ) ;
#95 = EDGE_LOOP ( 'NONE', ( #161, #192 ) ) ;
#96 = ORIENTED_EDGE ( 'NONE', *, *, #278, .F. ) ;
#97 = FILL_AREA_STYLE ('',( #71 ) ) ;
#98 = APPLICATION_CONTEXT ( 'automotive_design' ) ;
#99 = FILL_AREA_STYLE ('',( #22 ) ) ;
#100 = ORIENTED_EDGE ( 'NONE', *, *, #160, .T. ) ;
#101 = ADVANCED_FACE ( 'NONE', ( #207 ), #36, .T. ) ;
#102 = AXIS2_PLACEMENT_3D ( 'NONE', #283, #130, #264 ) ;
#103 = DIRECTION ( 'NONE',  ( 0.0000000000000000000, 0.0000000000000000000, 1.000000000000000000 ) ) ;
#104 = EDGE_LOOP ( 'NONE', ( #143, #168 ) ) ;
#105 = UNCERTAINTY_MEASURE_WITH_UNIT (LENGTH_MEASURE( 1.000000000000000100E-005 ), #177, 'distance_accuracy_value', 'NONE');
#106 = VERTEX_POINT ( 'NONE', #219 ) ;
#107 = VERTEX_POINT ( 'NONE', #37 ) ;
#108 = DIRECTION ( 'NONE',  ( -1.000000000000000000, 0.0000000000000000000, 0.0000000000000000000 ) ) ;
#109 = AXIS2_PLACEMENT_3D ( 'NONE', #70, #152, #284 ) ;
#110 = CARTESIAN_POINT ( 'NONE',  ( 0.0000000000000000000, 0.0000000000000000000, 97.00000000000000000 ) ) ;
#111 = DIRECTION ( 'NONE',  ( 0.0000000000000000000, 0.0000000000000000000, 1.000000000000000000 ) ) ;
#112 = DIRECTION ( 'NONE',  ( -0.0000000000000000000, -0.0000000000000000000, -1.000000000000000000 ) ) ;
#113 = DIRECTION ( 'NONE',  ( 1.000000000000000000, 0.0000000000000000000, 0.0000000000000000000 ) ) ;
#114 = EDGE_CURVE ( 'NONE', #107, #53, #2, .T. ) ;
#115 = VERTEX_POINT ( 'NONE', #259 ) ;
#116 = SHAPE_DEFINITION_REPRESENTATION ( #21, #274 ) ;
#117 = ADVANCED_FACE ( 'NONE', ( #84 ), #182, .F. ) ;
#118 = CARTESIAN_POINT ( 'NONE',  ( 0.0000000000000000000, 0.0000000000000000000, 100.0000000000000000 ) ) ;
#119 = DIRECTION ( 'NONE',  ( 1.000000000000000000, 0.0000000000000000000, 0.0000000000000000000 ) ) ;
#120 = VERTEX_POINT ( 'NONE', #141 ) ;
#121 = AXIS2_PLACEMENT_3D ( 'NONE', #172, #89, #220 ) ;
#122 = ORIENTED_EDGE ( 'NONE', *, *, #114, .T. ) ;
#123 = VECTOR ( 'NONE', #204, 1000.000000000000000 ) ;
#124 = AXIS2_PLACEMENT_3D ( 'NONE', #157, #288, #134 ) ;
#125 = CARTESIAN_POINT ( 'NONE',  ( 0.0000000000000000000, 0.0000000000000000000, 100.0000000000000000 ) ) ;
#126 = AXIS2_PLACEMENT_3D ( 'NONE', #118, #188, #215 ) ;
#127 = EDGE_LOOP ( 'NONE', ( #25, #281 ) ) ;
#128 = CYLINDRICAL_SURFACE ( 'NONE', #60, 17.44999999999999900 ) ;
#129 = COLOUR_RGB ( '',0.7921568627450980000, 0.8196078431372548800, 0.9333333333333333500 ) ;
#130 = DIRECTION ( 'NONE',  ( 0.0000000000000000000, 0.0000000000000000000, 1.000000000000000000 ) ) ;
#131 = DIRECTION ( 'NONE',  ( 1.000000000000000000, 0.0000000000000000000, 0.0000000000000000000 ) ) ;
#132 = CARTESIAN_POINT ( 'NONE',  ( 15.85000000000000000, 1.941065176648555100E-015, 100.0000000000000000 ) ) ;
#133 = CARTESIAN_POINT ( 'NONE',  ( 0.0000000000000000000, 0.0000000000000000000, 97.00000000000000000 ) ) ;
#134 = DIRECTION ( 'NONE',  ( 1.000000000000000000, 0.0000000000000000000, 0.0000000000000000000 ) ) ;
#135 = VECTOR ( 'NONE', #51, 1000.000000000000000 ) ;
#136 = COLOUR_RGB ( '',0.7921568627450980000, 0.8196078431372548800, 0.9333333333333333500 ) ;
#137 =( GEOMETRIC_REPRESENTATION_CONTEXT ( 3 ) GLOBAL_UNCERTAINTY_ASSIGNED_CONTEXT ( ( #105 ) ) GLOBAL_UNIT_ASSIGNED_CONTEXT ( ( #177, #18, #286 ) ) REPRESENTATION_CONTEXT ( 'NONE', 'WORKASPACE' ) );
#138 = CARTESIAN_POINT ( 'NONE',  ( 0.0000000000000000000, 0.0000000000000000000, 97.00000000000000000 ) ) ;
#139 = ORIENTED_EDGE ( 'NONE', *, *, #63, .F. ) ;
#140 = EDGE_LOOP ( 'NONE', ( #86, #226, #210, #213 ) ) ;
#141 = CARTESIAN_POINT ( 'NONE',  ( -16.50000000000000000, 0.0000000000000000000, 97.00000000000000000 ) ) ;
#142 = PRODUCT_DEFINITION ( 'UNKNOWN', '', #212, #179 ) ;
#143 = ORIENTED_EDGE ( 'NONE', *, *, #250, .F. ) ;
#144 = EDGE_CURVE ( 'NONE', #153, #145, #253, .T. ) ;
#145 = VERTEX_POINT ( 'NONE', #3 ) ;
#146 = FACE_BOUND ( 'NONE', #266, .T. ) ;
#147 = AXIS2_PLACEMENT_3D ( 'NONE', #199, #240, #91 ) ;
#148 = CARTESIAN_POINT ( 'NONE',  ( 0.0000000000000000000, 0.0000000000000000000, 100.0000000000000000 ) ) ;
#149 = CARTESIAN_POINT ( 'NONE',  ( 0.0000000000000000000, 0.0000000000000000000, 97.00000000000000000 ) ) ;
#150 = DIRECTION ( 'NONE',  ( 0.0000000000000000000, 0.0000000000000000000, 1.000000000000000000 ) ) ;
#151 = DIRECTION ( 'NONE',  ( 1.000000000000000000, 0.0000000000000000000, 0.0000000000000000000 ) ) ;
#152 = DIRECTION ( 'NONE',  ( 0.0000000000000000000, 0.0000000000000000000, 1.000000000000000000 ) ) ;
#153 = VERTEX_POINT ( 'NONE', #211 ) ;
#154 = SURFACE_SIDE_STYLE ('',( #169 ) ) ;
#155 = DIRECTION ( 'NONE',  ( 0.0000000000000000000, 0.0000000000000000000, 1.000000000000000000 ) ) ;
#156 = AXIS2_PLACEMENT_3D ( 'NONE', #282, #112, #108 ) ;
#157 = CARTESIAN_POINT ( 'NONE',  ( 0.0000000000000000000, 0.0000000000000000000, 100.0000000000000000 ) ) ;
#158 = ORIENTED_EDGE ( 'NONE', *, *, #33, .T. ) ;
#159 = ADVANCED_FACE ( 'NONE', ( #46 ), #128, .T. ) ;
#160 = EDGE_CURVE ( 'NONE', #180, #85, #261, .T. ) ;
#161 = ORIENTED_EDGE ( 'NONE', *, *, #93, .T. ) ;
#162 = CIRCLE ( 'NONE', #64, 16.50000000000000000 ) ;
#163 = ORIENTED_EDGE ( 'NONE', *, *, #9, .T. ) ;
#164 = CIRCLE ( 'NONE', #32, 16.50000000000000000 ) ;
#165 = EDGE_CURVE ( 'NONE', #53, #107, #267, .T. ) ;
#166 = PRESENTATION_LAYER_ASSIGNMENT (  '', '', ( #230 ) ) ;
#167 = DIRECTION ( 'NONE',  ( 0.0000000000000000000, 0.0000000000000000000, 1.000000000000000000 ) ) ;
#168 = ORIENTED_EDGE ( 'NONE', *, *, #144, .F. ) ;
#169 = SURFACE_STYLE_FILL_AREA ( #99 ) ;
#170 = CIRCLE ( 'NONE', #147, 15.85000000000000000 ) ;
#171 = CARTESIAN_POINT ( 'NONE',  ( 17.44999999999999900, 0.0000000000000000000, 97.00000000000000000 ) ) ;
#172 = CARTESIAN_POINT ( 'NONE',  ( 0.0000000000000000000, 0.0000000000000000000, 0.0000000000000000000 ) ) ;
#173 = ORIENTED_EDGE ( 'NONE', *, *, #195, .T. ) ;
#174 = DIRECTION ( 'NONE',  ( -0.0000000000000000000, -0.0000000000000000000, -1.000000000000000000 ) ) ;
#175 = CARTESIAN_POINT ( 'NONE',  ( -15.85000000000000000, 0.0000000000000000000, 100.0000000000000000 ) ) ;
#176 = DIRECTION ( 'NONE',  ( 0.0000000000000000000, 0.0000000000000000000, 1.000000000000000000 ) ) ;
#177 =( LENGTH_UNIT ( ) NAMED_UNIT ( * ) SI_UNIT ( .MILLI., .METRE. ) );
#178 = DIRECTION ( 'NONE',  ( 0.0000000000000000000, 0.0000000000000000000, 1.000000000000000000 ) ) ;
#179 = PRODUCT_DEFINITION_CONTEXT ( 'detailed design', #201, 'design' ) ;
#180 = VERTEX_POINT ( 'NONE', #202 ) ;
#181 = CIRCLE ( 'NONE', #102, 15.85000000000000000 ) ;
#182 = CYLINDRICAL_SURFACE ( 'NONE', #126, 15.85000000000000000 ) ;
#183 = EDGE_CURVE ( 'NONE', #120, #106, #185, .T. ) ;
#184 = ADVANCED_FACE ( 'NONE', ( #11 ), #88, .T. ) ;
#185 = LINE ( 'NONE', #79, #135 ) ;
#186 = ORIENTED_EDGE ( 'NONE', *, *, #83, .T. ) ;
#187 =( GEOMETRIC_REPRESENTATION_CONTEXT ( 3 ) GLOBAL_UNCERTAINTY_ASSIGNED_CONTEXT ( ( #262 ) ) GLOBAL_UNIT_ASSIGNED_CONTEXT ( ( #200, #38, #245 ) ) REPRESENTATION_CONTEXT ( 'NONE', 'WORKASPACE' ) );
#188 = DIRECTION ( 'NONE',  ( -0.0000000000000000000, -0.0000000000000000000, -1.000000000000000000 ) ) ;
#189 = ORIENTED_EDGE ( 'NONE', *, *, #183, .T. ) ;
#190 = LINE ( 'NONE', #132, #123 ) ;
#191 = DIRECTION ( 'NONE',  ( 1.000000000000000000, 0.0000000000000000000, 0.0000000000000000000 ) ) ;
#192 = ORIENTED_EDGE ( 'NONE', *, *, #268, .T. ) ;
#193 = CIRCLE ( 'NONE', #124, 17.44999999999999900 ) ;
#194 = CARTESIAN_POINT ( 'NONE',  ( 0.0000000000000000000, 0.0000000000000000000, 100.0000000000000000 ) ) ;
#195 = EDGE_CURVE ( 'NONE', #28, #290, #193, .T. ) ;
#196 = DIRECTION ( 'NONE',  ( 1.000000000000000000, 0.0000000000000000000, 0.0000000000000000000 ) ) ;
#197 = FACE_BOUND ( 'NONE', #127, .T. ) ;
#198 = AXIS2_PLACEMENT_3D ( 'NONE', #133, #265, #113 ) ;
#199 = CARTESIAN_POINT ( 'NONE',  ( 0.0000000000000000000, 0.0000000000000000000, 0.0000000000000000000 ) ) ;
#200 =( LENGTH_UNIT ( ) NAMED_UNIT ( * ) SI_UNIT ( .MILLI., .METRE. ) );
#201 = APPLICATION_CONTEXT ( 'automotive_design' ) ;
#202 = CARTESIAN_POINT ( 'NONE',  ( 16.50000000000000000, 2.020667218593133100E-015, 97.00000000000000000 ) ) ;
#203 = CARTESIAN_POINT ( 'NONE',  ( 0.0000000000000000000, 0.0000000000000000000, 0.0000000000000000000 ) ) ;
#204 = DIRECTION ( 'NONE',  ( -0.0000000000000000000, -0.0000000000000000000, -1.000000000000000000 ) ) ;
#205 = DIRECTION ( 'NONE',  ( 1.000000000000000000, 0.0000000000000000000, 0.0000000000000000000 ) ) ;
#206 = ORIENTED_EDGE ( 'NONE', *, *, #160, .F. ) ;
#207 = FACE_OUTER_BOUND ( 'NONE', #52, .T. ) ;
#208 = PRESENTATION_LAYER_ASSIGNMENT (  '', '', ( #216 ) ) ;
#209 = ADVANCED_FACE ( 'NONE', ( #218 ), #12, .T. ) ;
#210 = ORIENTED_EDGE ( 'NONE', *, *, #73, .F. ) ;
#211 = CARTESIAN_POINT ( 'NONE',  ( -17.44999999999999900, 2.137008664512131600E-015, 97.00000000000000000 ) ) ;
#212 = PRODUCT_DEFINITION_FORMATION_WITH_SPECIFIED_SOURCE ( 'ANY', '', #8, .NOT_KNOWN. ) ;
#213 = ORIENTED_EDGE ( 'NONE', *, *, #273, .F. ) ;
#214 = EDGE_LOOP ( 'NONE', ( #61, #100, #163, #235 ) ) ;
#215 = DIRECTION ( 'NONE',  ( -1.000000000000000000, 0.0000000000000000000, 0.0000000000000000000 ) ) ;
#216 = STYLED_ITEM ( 'NONE', ( #26 ), #274 ) ;
#217 = ORIENTED_EDGE ( 'NONE', *, *, #195, .F. ) ;
#218 = FACE_OUTER_BOUND ( 'NONE', #81, .T. ) ;
#219 = CARTESIAN_POINT ( 'NONE',  ( -16.50000000000000000, 0.0000000000000000000, 0.0000000000000000000 ) ) ;
#220 = DIRECTION ( 'NONE',  ( 1.000000000000000000, 0.0000000000000000000, 0.0000000000000000000 ) ) ;
#221 = CARTESIAN_POINT ( 'NONE',  ( 16.50000000000000000, 2.020667218593133100E-015, 100.0000000000000000 ) ) ;
#222 = MECHANICAL_DESIGN_GEOMETRIC_PRESENTATION_REPRESENTATION (  '', ( #230 ), #137 ) ;
#223 = CARTESIAN_POINT ( 'NONE',  ( 0.0000000000000000000, 0.0000000000000000000, 0.0000000000000000000 ) ) ;
#224 = PLANE ( 'NONE',  #109 ) ;
#225 = SURFACE_SIDE_STYLE ('',( #256 ) ) ;
#226 = ORIENTED_EDGE ( 'NONE', *, *, #278, .T. ) ;
#227 = EDGE_LOOP ( 'NONE', ( #96, #122, #35, #4 ) ) ;
#228 = LINE ( 'NONE', #287, #271 ) ;
#229 = DIRECTION ( 'NONE',  ( 1.000000000000000000, 0.0000000000000000000, 0.0000000000000000000 ) ) ;
#230 = STYLED_ITEM ( 'NONE', ( #78 ), #30 ) ;
#231 = CARTESIAN_POINT ( 'NONE',  ( 0.0000000000000000000, 0.0000000000000000000, 97.00000000000000000 ) ) ;
#232 = ORIENTED_EDGE ( 'NONE', *, *, #73, .T. ) ;
#233 = FACE_OUTER_BOUND ( 'NONE', #104, .T. ) ;
#234 = CIRCLE ( 'NONE', #198, 17.44999999999999900 ) ;
#235 = ORIENTED_EDGE ( 'NONE', *, *, #183, .F. ) ;
#236 = LINE ( 'NONE', #241, #82 ) ;
#237 = AXIS2_PLACEMENT_3D ( 'NONE', #110, #167, #34 ) ;
#238 = DIRECTION ( 'NONE',  ( 1.000000000000000000, 0.0000000000000000000, -0.0000000000000000000 ) ) ;
#239 = CIRCLE ( 'NONE', #24, 16.50000000000000000 ) ;
#240 = DIRECTION ( 'NONE',  ( 0.0000000000000000000, 0.0000000000000000000, 1.000000000000000000 ) ) ;
#241 = CARTESIAN_POINT ( 'NONE',  ( -15.85000000000000000, 0.0000000000000000000, 100.0000000000000000 ) ) ;
#242 = CARTESIAN_POINT ( 'NONE',  ( 0.0000000000000000000, 0.0000000000000000000, 100.0000000000000000 ) ) ;
#243 = ORIENTED_EDGE ( 'NONE', *, *, #251, .F. ) ;
#244 = LINE ( 'NONE', #171, #54 ) ;
#245 =( NAMED_UNIT ( * ) SI_UNIT ( $, .STERADIAN. ) SOLID_ANGLE_UNIT ( ) );
#246 = CARTESIAN_POINT ( 'NONE',  ( 0.0000000000000000000, 0.0000000000000000000, 97.00000000000000000 ) ) ;
#247 =( NAMED_UNIT ( * ) PLANE_ANGLE_UNIT ( ) SI_UNIT ( $, .RADIAN. ) );
#248 = ADVANCED_FACE ( 'NONE', ( #77, #197 ), #269, .T. ) ;
#249 = FACE_OUTER_BOUND ( 'NONE', #254, .T. ) ;
#250 = EDGE_CURVE ( 'NONE', #145, #153, #234, .T. ) ;
#251 = EDGE_CURVE ( 'NONE', #153, #290, #228, .T. ) ;
#252 = ORIENTED_EDGE ( 'NONE', *, *, #33, .F. ) ;
#253 = CIRCLE ( 'NONE', #280, 17.44999999999999900 ) ;
#254 = EDGE_LOOP ( 'NONE', ( #252, #31 ) ) ;
#255 = AXIS2_PLACEMENT_3D ( 'NONE', #125, #29, #191 ) ;
#256 = SURFACE_STYLE_FILL_AREA ( #97 ) ;
#257 =( GEOMETRIC_REPRESENTATION_CONTEXT ( 3 ) GLOBAL_UNCERTAINTY_ASSIGNED_CONTEXT ( ( #6 ) ) GLOBAL_UNIT_ASSIGNED_CONTEXT ( ( #285, #247, #294 ) ) REPRESENTATION_CONTEXT ( 'NONE', 'WORKASPACE' ) );
#258 = CARTESIAN_POINT ( 'NONE',  ( 17.44999999999999900, 0.0000000000000000000, 100.0000000000000000 ) ) ;
#259 = CARTESIAN_POINT ( 'NONE',  ( -15.85000000000000000, 0.0000000000000000000, 0.0000000000000000000 ) ) ;
#260 = ORIENTED_EDGE ( 'NONE', *, *, #291, .T. ) ;
#261 = LINE ( 'NONE', #221, #65 ) ;
#262 = UNCERTAINTY_MEASURE_WITH_UNIT (LENGTH_MEASURE( 1.000000000000000100E-005 ), #200, 'distance_accuracy_value', 'NONE');
#263 = DIRECTION ( 'NONE',  ( -0.0000000000000000000, -0.0000000000000000000, -1.000000000000000000 ) ) ;
#264 = DIRECTION ( 'NONE',  ( 1.000000000000000000, 0.0000000000000000000, 0.0000000000000000000 ) ) ;
#265 = DIRECTION ( 'NONE',  ( 0.0000000000000000000, 0.0000000000000000000, 1.000000000000000000 ) ) ;
#266 = EDGE_LOOP ( 'NONE', ( #232, #260 ) ) ;
#267 = CIRCLE ( 'NONE', #57, 15.85000000000000000 ) ;
#268 = EDGE_CURVE ( 'NONE', #180, #120, #162, .T. ) ;
#269 = PLANE ( 'NONE',  #80 ) ;
#270 = ORIENTED_EDGE ( 'NONE', *, *, #251, .T. ) ;
#271 = VECTOR ( 'NONE', #49, 1000.000000000000000 ) ;
#272 = ADVANCED_FACE ( 'NONE', ( #249, #146 ), #224, .F. ) ;
#273 = EDGE_CURVE ( 'NONE', #53, #115, #236, .T. ) ;
#274 = ADVANCED_BREP_SHAPE_REPRESENTATION ( 'Shim', ( #30, #121 ), #187 ) ;
#275 = ORIENTED_EDGE ( 'NONE', *, *, #93, .F. ) ;
#276 = AXIS2_PLACEMENT_3D ( 'NONE', #149, #111, #238 ) ;
#277 = DIRECTION ( 'NONE',  ( 0.0000000000000000000, 0.0000000000000000000, 1.000000000000000000 ) ) ;
#278 = EDGE_CURVE ( 'NONE', #107, #1, #190, .T. ) ;
#279 = ORIENTED_EDGE ( 'NONE', *, *, #144, .T. ) ;
#280 = AXIS2_PLACEMENT_3D ( 'NONE', #231, #277, #229 ) ;
#281 = ORIENTED_EDGE ( 'NONE', *, *, #114, .F. ) ;
#282 = CARTESIAN_POINT ( 'NONE',  ( 0.0000000000000000000, 0.0000000000000000000, 100.0000000000000000 ) ) ;
#283 = CARTESIAN_POINT ( 'NONE',  ( 0.0000000000000000000, 0.0000000000000000000, 0.0000000000000000000 ) ) ;
#284 = DIRECTION ( 'NONE',  ( 1.000000000000000000, 0.0000000000000000000, -0.0000000000000000000 ) ) ;
#285 =( LENGTH_UNIT ( ) NAMED_UNIT ( * ) SI_UNIT ( .MILLI., .METRE. ) );
#286 =( NAMED_UNIT ( * ) SI_UNIT ( $, .STERADIAN. ) SOLID_ANGLE_UNIT ( ) );
#287 = CARTESIAN_POINT ( 'NONE',  ( -17.44999999999999900, 2.137008664512131600E-015, 97.00000000000000000 ) ) ;
#288 = DIRECTION ( 'NONE',  ( 0.0000000000000000000, 0.0000000000000000000, 1.000000000000000000 ) ) ;
#289 = MECHANICAL_DESIGN_GEOMETRIC_PRESENTATION_REPRESENTATION (  '', ( #216 ), #257 ) ;
#290 = VERTEX_POINT ( 'NONE', #42 ) ;
#291 = EDGE_CURVE ( 'NONE', #1, #115, #181, .T. ) ;
#292 = CIRCLE ( 'NONE', #237, 16.50000000000000000 ) ;
#293 = ADVANCED_FACE ( 'NONE', ( #62, #233 ), #68, .F. ) ;
#294 =( NAMED_UNIT ( * ) SI_UNIT ( $, .STERADIAN. ) SOLID_ANGLE_UNIT ( ) );
ENDSEC;
END-ISO-10303-21;
