ISO-10303-21;
HEADER;
FILE_DESCRIPTION(('STEP AP214'),'1');
FILE_NAME('BMR-012a AXE PALONNIER.step','2016-02-17T20:42:52',(' '),(' '),'Spatial InterOp 3D',' ',' ');
FILE_SCHEMA(('automotive_design'));
ENDSEC;
DATA;
#1=MECHANICAL_DESIGN_GEOMETRIC_PRESENTATION_REPRESENTATION(' ',(#10,#11,#12,#13,#14,#15,#16,#17,#18,#19,#20,#21,#22,#23),#6);
#2=PRODUCT_DEFINITION_CONTEXT('',#24,'design');
#3=APPLICATION_PROTOCOL_DEFINITION('INTERNATIONAL STANDARD','automotive_design',1994,#24);
#4=PRODUCT_CATEGORY_RELATIONSHIP('NONE','NONE',#25,#26);
#5=SHAPE_DEFINITION_REPRESENTATION(#27,#28);
#6= (GEOMETRIC_REPRESENTATION_CONTEXT(3)GLOBAL_UNCERTAINTY_ASSIGNED_CONTEXT((#31))GLOBAL_UNIT_ASSIGNED_CONTEXT((#33,#34,#35))REPRESENTATION_CONTEXT('NONE','WORKSPACE'));
#10=STYLED_ITEM('',(#37),#38);
#11=STYLED_ITEM('',(#39),#40);
#12=STYLED_ITEM('',(#41),#42);
#13=STYLED_ITEM('',(#43),#44);
#14=STYLED_ITEM('',(#45),#46);
#15=STYLED_ITEM('',(#47),#48);
#16=STYLED_ITEM('',(#49),#50);
#17=STYLED_ITEM('',(#51),#52);
#18=STYLED_ITEM('',(#53),#54);
#19=STYLED_ITEM('',(#55),#56);
#20=STYLED_ITEM('',(#57),#58);
#21=STYLED_ITEM('',(#59),#60);
#22=STYLED_ITEM('',(#61),#62);
#23=STYLED_ITEM('',(#63),#64);
#24=APPLICATION_CONTEXT(' ');
#25=PRODUCT_CATEGORY('part','NONE');
#26=PRODUCT_RELATED_PRODUCT_CATEGORY('detail',' ',(#65));
#27=PRODUCT_DEFINITION_SHAPE('NONE','NONE',#66);
#28=ADVANCED_BREP_SHAPE_REPRESENTATION('AXE PALONNIER',(#67,#68),#6);
#31=UNCERTAINTY_MEASURE_WITH_UNIT(LENGTH_MEASURE(0.001),#33,'','');
#33= (CONVERSION_BASED_UNIT('MILLIMETRE',#71)LENGTH_UNIT()NAMED_UNIT(#74));
#34= (NAMED_UNIT(#76)PLANE_ANGLE_UNIT()SI_UNIT($,.RADIAN.));
#35= (NAMED_UNIT(#76)SOLID_ANGLE_UNIT()SI_UNIT($,.STERADIAN.));
#37=PRESENTATION_STYLE_ASSIGNMENT((#82));
#38=ADVANCED_FACE('',(#83,#84),#85,.F.);
#39=PRESENTATION_STYLE_ASSIGNMENT((#86));
#40=ADVANCED_FACE('',(#87,#88),#89,.F.);
#41=PRESENTATION_STYLE_ASSIGNMENT((#90));
#42=ADVANCED_FACE('',(#91,#92),#93,.F.);
#43=PRESENTATION_STYLE_ASSIGNMENT((#94));
#44=ADVANCED_FACE('',(#95,#96),#97,.F.);
#45=PRESENTATION_STYLE_ASSIGNMENT((#98));
#46=ADVANCED_FACE('',(#99,#100),#101,.T.);
#47=PRESENTATION_STYLE_ASSIGNMENT((#102));
#48=ADVANCED_FACE('',(#103,#104),#105,.F.);
#49=PRESENTATION_STYLE_ASSIGNMENT((#106));
#50=ADVANCED_FACE('',(#107,#108),#109,.T.);
#51=PRESENTATION_STYLE_ASSIGNMENT((#110));
#52=ADVANCED_FACE('',(#111,#112),#113,.F.);
#53=PRESENTATION_STYLE_ASSIGNMENT((#114));
#54=ADVANCED_FACE('',(#115,#116),#117,.F.);
#55=PRESENTATION_STYLE_ASSIGNMENT((#118));
#56=ADVANCED_FACE('',(#119,#120),#121,.T.);
#57=PRESENTATION_STYLE_ASSIGNMENT((#122));
#58=ADVANCED_FACE('',(#123,#124),#125,.T.);
#59=PRESENTATION_STYLE_ASSIGNMENT((#126));
#60=ADVANCED_FACE('',(#127,#128),#129,.F.);
#61=PRESENTATION_STYLE_ASSIGNMENT((#130));
#62=ADVANCED_FACE('',(#131,#132),#133,.T.);
#63=PRESENTATION_STYLE_ASSIGNMENT((#134));
#64=ADVANCED_FACE('',(#135,#136),#137,.F.);
#65=PRODUCT('AXE PALONNIER','AXE PALONNIER','PART-AXE PALONNIER-DESC',(#138));
#66=PRODUCT_DEFINITION('NONE','NONE',#139,#2);
#67=MANIFOLD_SOLID_BREP('AXE PALONNIER',#140);
#68=AXIS2_PLACEMENT_3D('',#141,#142,#143);
#71=LENGTH_MEASURE_WITH_UNIT(LENGTH_MEASURE(1.0),#144);
#74=DIMENSIONAL_EXPONENTS(1.0,0.0,0.0,0.0,0.0,0.0,0.0);
#76=DIMENSIONAL_EXPONENTS(0.0,0.0,0.0,0.0,0.0,0.0,0.0);
#82=SURFACE_STYLE_USAGE(.BOTH.,#145);
#83=FACE_OUTER_BOUND('',#146,.T.);
#84=FACE_OUTER_BOUND('',#147,.T.);
#85=CYLINDRICAL_SURFACE('',#148,4.25);
#86=SURFACE_STYLE_USAGE(.BOTH.,#149);
#87=FACE_OUTER_BOUND('',#150,.T.);
#88=FACE_BOUND('',#151,.T.);
#89=CONICAL_SURFACE('',#152,866.025403784439,1.0471975511966);
#90=SURFACE_STYLE_USAGE(.BOTH.,#153);
#91=FACE_OUTER_BOUND('',#154,.T.);
#92=FACE_OUTER_BOUND('',#155,.T.);
#93=CYLINDRICAL_SURFACE('',#156,2.5);
#94=SURFACE_STYLE_USAGE(.BOTH.,#157);
#95=FACE_BOUND('',#158,.T.);
#96=FACE_OUTER_BOUND('',#159,.T.);
#97=PLANE('',#160);
#98=SURFACE_STYLE_USAGE(.BOTH.,#161);
#99=FACE_OUTER_BOUND('',#162,.T.);
#100=FACE_OUTER_BOUND('',#163,.T.);
#101=CYLINDRICAL_SURFACE('',#164,7.5);
#102=SURFACE_STYLE_USAGE(.BOTH.,#165);
#103=FACE_OUTER_BOUND('',#166,.T.);
#104=FACE_OUTER_BOUND('',#167,.T.);
#105=CYLINDRICAL_SURFACE('',#168,4.25);
#106=SURFACE_STYLE_USAGE(.BOTH.,#169);
#107=FACE_OUTER_BOUND('',#170,.T.);
#108=FACE_OUTER_BOUND('',#171,.T.);
#109=CYLINDRICAL_SURFACE('',#172,7.5);
#110=SURFACE_STYLE_USAGE(.BOTH.,#173);
#111=FACE_BOUND('',#174,.T.);
#112=FACE_OUTER_BOUND('',#175,.T.);
#113=PLANE('',#176);
#114=SURFACE_STYLE_USAGE(.BOTH.,#177);
#115=FACE_BOUND('',#178,.T.);
#116=FACE_OUTER_BOUND('',#179,.T.);
#117=PLANE('',#180);
#118=SURFACE_STYLE_USAGE(.BOTH.,#181);
#119=FACE_BOUND('',#182,.T.);
#120=FACE_OUTER_BOUND('',#183,.T.);
#121=PLANE('',#184);
#122=SURFACE_STYLE_USAGE(.BOTH.,#185);
#123=FACE_OUTER_BOUND('',#186,.T.);
#124=FACE_OUTER_BOUND('',#187,.T.);
#125=CYLINDRICAL_SURFACE('',#188,7.14999999999942);
#126=SURFACE_STYLE_USAGE(.BOTH.,#189);
#127=FACE_BOUND('',#190,.T.);
#128=FACE_OUTER_BOUND('',#191,.T.);
#129=CONICAL_SURFACE('',#192,3.5,0.785398163397448);
#130=SURFACE_STYLE_USAGE(.BOTH.,#193);
#131=FACE_OUTER_BOUND('',#194,.T.);
#132=FACE_OUTER_BOUND('',#195,.T.);
#133=CYLINDRICAL_SURFACE('',#196,10.0);
#134=SURFACE_STYLE_USAGE(.BOTH.,#197);
#135=FACE_BOUND('',#198,.T.);
#136=FACE_OUTER_BOUND('',#199,.T.);
#137=PLANE('',#200);
#138=PRODUCT_CONTEXT('',#24,'mechanical');
#139=PRODUCT_DEFINITION_FORMATION_WITH_SPECIFIED_SOURCE(' ','NONE',#65,.NOT_KNOWN.);
#140=CLOSED_SHELL('',(#40,#42,#50,#46,#52,#44,#62,#64,#56,#58,#54,#38,#60,#48));
#141=CARTESIAN_POINT('',(0.0,0.0,0.0));
#142=DIRECTION('',(0.0,0.0,1.0));
#143=DIRECTION('',(1.0,0.0,0.0));
#144= (NAMED_UNIT(#74)LENGTH_UNIT()SI_UNIT(.MILLI.,.METRE.));
#145=SURFACE_SIDE_STYLE('',(#202));
#146=EDGE_LOOP('',(#203));
#147=EDGE_LOOP('',(#204));
#148=AXIS2_PLACEMENT_3D('',#205,#206,#207);
#149=SURFACE_SIDE_STYLE('',(#208));
#150=EDGE_LOOP('',(#209));
#151=EDGE_LOOP('',(#210));
#152=AXIS2_PLACEMENT_3D('',#211,#212,#213);
#153=SURFACE_SIDE_STYLE('',(#214));
#154=EDGE_LOOP('',(#215));
#155=EDGE_LOOP('',(#216));
#156=AXIS2_PLACEMENT_3D('',#217,#218,#219);
#157=SURFACE_SIDE_STYLE('',(#220));
#158=EDGE_LOOP('',(#221));
#159=EDGE_LOOP('',(#222));
#160=AXIS2_PLACEMENT_3D('',#223,#224,#225);
#161=SURFACE_SIDE_STYLE('',(#226));
#162=EDGE_LOOP('',(#227));
#163=EDGE_LOOP('',(#228));
#164=AXIS2_PLACEMENT_3D('',#229,#230,#231);
#165=SURFACE_SIDE_STYLE('',(#232));
#166=EDGE_LOOP('',(#233));
#167=EDGE_LOOP('',(#234));
#168=AXIS2_PLACEMENT_3D('',#235,#236,#237);
#169=SURFACE_SIDE_STYLE('',(#238));
#170=EDGE_LOOP('',(#239));
#171=EDGE_LOOP('',(#240));
#172=AXIS2_PLACEMENT_3D('',#241,#242,#243);
#173=SURFACE_SIDE_STYLE('',(#244));
#174=EDGE_LOOP('',(#245));
#175=EDGE_LOOP('',(#246));
#176=AXIS2_PLACEMENT_3D('',#247,#248,#249);
#177=SURFACE_SIDE_STYLE('',(#250));
#178=EDGE_LOOP('',(#251));
#179=EDGE_LOOP('',(#252));
#180=AXIS2_PLACEMENT_3D('',#253,#254,#255);
#181=SURFACE_SIDE_STYLE('',(#256));
#182=EDGE_LOOP('',(#257));
#183=EDGE_LOOP('',(#258));
#184=AXIS2_PLACEMENT_3D('',#259,#260,#261);
#185=SURFACE_SIDE_STYLE('',(#262));
#186=EDGE_LOOP('',(#263));
#187=EDGE_LOOP('',(#264));
#188=AXIS2_PLACEMENT_3D('',#265,#266,#267);
#189=SURFACE_SIDE_STYLE('',(#268));
#190=EDGE_LOOP('',(#269));
#191=EDGE_LOOP('',(#270));
#192=AXIS2_PLACEMENT_3D('',#271,#272,#273);
#193=SURFACE_SIDE_STYLE('',(#274));
#194=EDGE_LOOP('',(#275));
#195=EDGE_LOOP('',(#276));
#196=AXIS2_PLACEMENT_3D('',#277,#278,#279);
#197=SURFACE_SIDE_STYLE('',(#280));
#198=EDGE_LOOP('',(#281));
#199=EDGE_LOOP('',(#282));
#200=AXIS2_PLACEMENT_3D('',#283,#284,#285);
#202=SURFACE_STYLE_FILL_AREA(#286);
#203=ORIENTED_EDGE('',*,*,#287,.T.);
#204=ORIENTED_EDGE('',*,*,#288,.F.);
#205=CARTESIAN_POINT('',(1.38056034011483E-015,22.5462613559441,0.0));
#206=DIRECTION('',(-6.12323399573677E-017,-1.0,-0.0));
#207=DIRECTION('',(0.0,0.0,-1.0));
#208=SURFACE_STYLE_FILL_AREA(#289);
#209=ORIENTED_EDGE('',*,*,#290,.F.);
#210=ORIENTED_EDGE('',*,*,#291,.F.);
#211=CARTESIAN_POINT('',(-2.90853614797496E-014,-475.0,0.0));
#212=DIRECTION('',(-6.12323399573677E-017,-1.0,-0.0));
#213=DIRECTION('',(0.0,0.0,-1.0));
#214=SURFACE_STYLE_FILL_AREA(#292);
#215=ORIENTED_EDGE('',*,*,#293,.T.);
#216=ORIENTED_EDGE('',*,*,#291,.T.);
#217=CARTESIAN_POINT('',(2.2962127484063E-015,37.5000000000818,0.0));
#218=DIRECTION('',(-6.12323399573677E-017,-1.0,-0.0));
#219=DIRECTION('',(0.0,0.0,-1.0));
#220=SURFACE_STYLE_FILL_AREA(#294);
#221=ORIENTED_EDGE('',*,*,#295,.F.);
#222=ORIENTED_EDGE('',*,*,#296,.T.);
#223=CARTESIAN_POINT('',(-10.0,3.0,0.0));
#224=DIRECTION('',(-6.12323399573677E-017,-1.0,0.0));
#225=DIRECTION('',(1.0,-6.12323399573677E-017,0.0));
#226=SURFACE_STYLE_FILL_AREA(#297);
#227=ORIENTED_EDGE('',*,*,#295,.T.);
#228=ORIENTED_EDGE('',*,*,#298,.F.);
#229=CARTESIAN_POINT('',(-3.06161699786838E-015,-50.0,0.0));
#230=DIRECTION('',(6.12323399573677E-017,1.0,0.0));
#231=DIRECTION('',(-1.0,6.12323399573677E-017,0.0));
#232=SURFACE_STYLE_FILL_AREA(#299);
#233=ORIENTED_EDGE('',*,*,#290,.T.);
#234=ORIENTED_EDGE('',*,*,#287,.F.);
#235=CARTESIAN_POINT('',(1.38056034011483E-015,22.5462613559441,0.0));
#236=DIRECTION('',(-6.12323399573677E-017,-1.0,-0.0));
#237=DIRECTION('',(0.0,0.0,-1.0));
#238=SURFACE_STYLE_FILL_AREA(#300);
#239=ORIENTED_EDGE('',*,*,#301,.T.);
#240=ORIENTED_EDGE('',*,*,#302,.F.);
#241=CARTESIAN_POINT('',(-3.06161699786838E-015,-50.0,0.0));
#242=DIRECTION('',(6.12323399573677E-017,1.0,0.0));
#243=DIRECTION('',(-1.0,6.12323399573677E-017,0.0));
#244=SURFACE_STYLE_FILL_AREA(#303);
#245=ORIENTED_EDGE('',*,*,#288,.T.);
#246=ORIENTED_EDGE('',*,*,#304,.F.);
#247=CARTESIAN_POINT('',(-1.87469972832732E-032,-3.06161699786838E-016,0.0));
#248=DIRECTION('',(6.12323399573677E-017,1.0,0.0));
#249=DIRECTION('',(-1.0,6.12323399573677E-017,0.0));
#250=SURFACE_STYLE_FILL_AREA(#305);
#251=ORIENTED_EDGE('',*,*,#306,.T.);
#252=ORIENTED_EDGE('',*,*,#302,.T.);
#253=CARTESIAN_POINT('',(-7.5,35.0,0.0));
#254=DIRECTION('',(-6.12323399573677E-017,-1.0,0.0));
#255=DIRECTION('',(1.0,-6.12323399573677E-017,0.0));
#256=SURFACE_STYLE_FILL_AREA(#307);
#257=ORIENTED_EDGE('',*,*,#308,.F.);
#258=ORIENTED_EDGE('',*,*,#298,.T.);
#259=CARTESIAN_POINT('',(3.93232194103881E-015,31.9999999999988,-3.73732824324605E-015));
#260=DIRECTION('',(3.06763370137166E-017,1.0,-1.66106740317785E-018));
#261=DIRECTION('',(-1.0,3.06763370137163E-017,-1.8385293287779E-013));
#262=SURFACE_STYLE_FILL_AREA(#309);
#263=ORIENTED_EDGE('',*,*,#310,.F.);
#264=ORIENTED_EDGE('',*,*,#308,.T.);
#265=CARTESIAN_POINT('',(3.9660659117539E-015,33.0999999999989,-3.73915541738955E-015));
#266=DIRECTION('',(-3.06763370137166E-017,-1.0,1.66106740317785E-018));
#267=DIRECTION('',(1.0,-3.06763370137163E-017,1.8385293287779E-013));
#268=SURFACE_STYLE_FILL_AREA(#311);
#269=ORIENTED_EDGE('',*,*,#293,.F.);
#270=ORIENTED_EDGE('',*,*,#306,.F.);
#271=CARTESIAN_POINT('',(2.14313189850787E-015,35.0,0.0));
#272=DIRECTION('',(6.12323399573679E-017,1.0,-0.0));
#273=DIRECTION('',(-1.0,6.12323399573679E-017,0.0));
#274=SURFACE_STYLE_FILL_AREA(#312);
#275=ORIENTED_EDGE('',*,*,#296,.F.);
#276=ORIENTED_EDGE('',*,*,#304,.T.);
#277=CARTESIAN_POINT('',(-3.06161699786838E-015,-50.0,0.0));
#278=DIRECTION('',(6.12323399573677E-017,1.0,0.0));
#279=DIRECTION('',(-1.0,6.12323399573677E-017,0.0));
#280=SURFACE_STYLE_FILL_AREA(#313);
#281=ORIENTED_EDGE('',*,*,#310,.T.);
#282=ORIENTED_EDGE('',*,*,#301,.F.);
#283=CARTESIAN_POINT('',(3.9660659117539E-015,33.0999999999989,-3.73915541738955E-015));
#284=DIRECTION('',(3.06763370137166E-017,1.0,-1.66106740317785E-018));
#285=DIRECTION('',(-1.0,3.06763370137163E-017,-1.8385293287779E-013));
#286=FILL_AREA_STYLE('',(#314));
#287=EDGE_CURVE('',#315,#315,#316,.F.);
#288=EDGE_CURVE('',#317,#317,#318,.T.);
#289=FILL_AREA_STYLE('',(#319));
#290=EDGE_CURVE('',#320,#320,#321,.T.);
#291=EDGE_CURVE('',#322,#322,#323,.T.);
#292=FILL_AREA_STYLE('',(#324));
#293=EDGE_CURVE('',#325,#325,#326,.F.);
#294=FILL_AREA_STYLE('',(#327));
#295=EDGE_CURVE('',#328,#328,#329,.T.);
#296=EDGE_CURVE('',#330,#330,#331,.T.);
#297=FILL_AREA_STYLE('',(#332));
#298=EDGE_CURVE('',#333,#333,#334,.T.);
#299=FILL_AREA_STYLE('',(#335));
#300=FILL_AREA_STYLE('',(#336));
#301=EDGE_CURVE('',#337,#337,#338,.T.);
#302=EDGE_CURVE('',#339,#339,#340,.T.);
#303=FILL_AREA_STYLE('',(#341));
#304=EDGE_CURVE('',#342,#342,#343,.T.);
#305=FILL_AREA_STYLE('',(#344));
#306=EDGE_CURVE('',#345,#345,#346,.T.);
#307=FILL_AREA_STYLE('',(#347));
#308=EDGE_CURVE('',#348,#348,#349,.T.);
#309=FILL_AREA_STYLE('',(#350));
#310=EDGE_CURVE('',#351,#351,#352,.T.);
#311=FILL_AREA_STYLE('',(#353));
#312=FILL_AREA_STYLE('',(#354));
#313=FILL_AREA_STYLE('',(#355));
#314=FILL_AREA_STYLE_COLOUR('',#356);
#315=VERTEX_POINT('',#357);
#316=CIRCLE('',#358,4.25);
#317=VERTEX_POINT('',#359);
#318=CIRCLE('',#360,4.25);
#319=FILL_AREA_STYLE_COLOUR('',#361);
#320=VERTEX_POINT('',#362);
#321=CIRCLE('',#363,4.25);
#322=VERTEX_POINT('',#364);
#323=CIRCLE('',#365,2.5);
#324=FILL_AREA_STYLE_COLOUR('',#366);
#325=VERTEX_POINT('',#367);
#326=CIRCLE('',#368,2.5);
#327=FILL_AREA_STYLE_COLOUR('',#369);
#328=VERTEX_POINT('',#370);
#329=CIRCLE('',#371,7.5);
#330=VERTEX_POINT('',#372);
#331=CIRCLE('',#373,10.0);
#332=FILL_AREA_STYLE_COLOUR('',#374);
#333=VERTEX_POINT('',#375);
#334=CIRCLE('',#376,7.5);
#335=FILL_AREA_STYLE_COLOUR('',#377);
#336=FILL_AREA_STYLE_COLOUR('',#378);
#337=VERTEX_POINT('',#379);
#338=CIRCLE('',#380,7.5);
#339=VERTEX_POINT('',#381);
#340=CIRCLE('',#382,7.5);
#341=FILL_AREA_STYLE_COLOUR('',#383);
#342=VERTEX_POINT('',#384);
#343=CIRCLE('',#385,10.0);
#344=FILL_AREA_STYLE_COLOUR('',#386);
#345=VERTEX_POINT('',#387);
#346=CIRCLE('',#388,3.5);
#347=FILL_AREA_STYLE_COLOUR('',#389);
#348=VERTEX_POINT('',#390);
#349=CIRCLE('',#391,7.14999999999942);
#350=FILL_AREA_STYLE_COLOUR('',#392);
#351=VERTEX_POINT('',#393);
#352=CIRCLE('',#394,7.14999999999942);
#353=FILL_AREA_STYLE_COLOUR('',#395);
#354=FILL_AREA_STYLE_COLOUR('',#396);
#355=FILL_AREA_STYLE_COLOUR('',#397);
#356=COLOUR_RGB('',0.752941191196442,0.752941191196442,0.752941191196442);
#357=CARTESIAN_POINT('',(4.25,20.0,-1.04094977927525E-015));
#358=AXIS2_PLACEMENT_3D('',#398,#399,#400);
#359=CARTESIAN_POINT('',(7.70371977754894E-031,0.0,-4.25));
#360=AXIS2_PLACEMENT_3D('',#401,#402,#403);
#361=COLOUR_RGB('',0.752941191196442,0.752941191196442,0.752941191196442);
#362=CARTESIAN_POINT('',(1.38056034011483E-015,22.5462613559441,-4.25));
#363=AXIS2_PLACEMENT_3D('',#404,#405,#406);
#364=CARTESIAN_POINT('',(2.5,23.556624327026,0.0));
#365=AXIS2_PLACEMENT_3D('',#407,#408,#409);
#366=COLOUR_RGB('',0.752941191196442,0.752941191196442,0.752941191196442);
#367=CARTESIAN_POINT('',(2.5,34.0,-6.12323399573677E-016));
#368=AXIS2_PLACEMENT_3D('',#410,#411,#412);
#369=COLOUR_RGB('',0.752941191196442,0.752941191196442,0.752941191196442);
#370=CARTESIAN_POINT('',(-7.5,3.0,0.0));
#371=AXIS2_PLACEMENT_3D('',#413,#414,#415);
#372=CARTESIAN_POINT('',(-10.0,3.0,0.0));
#373=AXIS2_PLACEMENT_3D('',#416,#417,#418);
#374=COLOUR_RGB('',0.752941191196442,0.752941191196442,0.752941191196442);
#375=CARTESIAN_POINT('',(-7.5,31.9999999999988,1.53556773668445E-049));
#376=AXIS2_PLACEMENT_3D('',#419,#420,#421);
#377=COLOUR_RGB('',0.752941191196442,0.752941191196442,0.752941191196442);
#378=COLOUR_RGB('',0.752941191196442,0.752941191196442,0.752941191196442);
#379=CARTESIAN_POINT('',(-7.5,33.0999999999989,1.53556773668445E-049));
#380=AXIS2_PLACEMENT_3D('',#422,#423,#424);
#381=CARTESIAN_POINT('',(-7.5,35.0,0.0));
#382=AXIS2_PLACEMENT_3D('',#425,#426,#427);
#383=COLOUR_RGB('',0.752941191196442,0.752941191196442,0.752941191196442);
#384=CARTESIAN_POINT('',(-10.0,6.12323399573677E-016,0.0));
#385=AXIS2_PLACEMENT_3D('',#428,#429,#430);
#386=COLOUR_RGB('',0.752941191196442,0.752941191196442,0.752941191196442);
#387=CARTESIAN_POINT('',(3.5,35.0,0.0));
#388=AXIS2_PLACEMENT_3D('',#431,#432,#433);
#389=COLOUR_RGB('',0.752941191196442,0.752941191196442,0.752941191196442);
#390=CARTESIAN_POINT('',(-1.31061614813505E-012,31.9999999999988,7.14999999999941));
#391=AXIS2_PLACEMENT_3D('',#434,#435,#436);
#392=COLOUR_RGB('',0.752941191196442,0.752941191196442,0.752941191196442);
#393=CARTESIAN_POINT('',(-1.31058240416434E-012,33.0999999999989,7.14999999999941));
#394=AXIS2_PLACEMENT_3D('',#437,#438,#439);
#395=COLOUR_RGB('',0.752941191196442,0.752941191196442,0.752941191196442);
#396=COLOUR_RGB('',0.752941191196442,0.752941191196442,0.752941191196442);
#397=COLOUR_RGB('',0.752941191196442,0.752941191196442,0.752941191196442);
#398=CARTESIAN_POINT('',(1.22464679914735E-015,20.0,0.0));
#399=DIRECTION('',(-6.12323399573677E-017,-1.0,0.0));
#400=DIRECTION('',(1.0,-6.12323399573677E-017,0.0));
#401=CARTESIAN_POINT('',(7.70371977754894E-031,0.0,0.0));
#402=DIRECTION('',(6.12323399573677E-017,1.0,0.0));
#403=DIRECTION('',(0.0,0.0,-1.0));
#404=CARTESIAN_POINT('',(1.38056034011483E-015,22.5462613559441,0.0));
#405=DIRECTION('',(6.12323399573677E-017,1.0,0.0));
#406=DIRECTION('',(0.0,0.0,-1.0));
#407=CARTESIAN_POINT('',(1.44242722904045E-015,23.556624327026,0.0));
#408=DIRECTION('',(-6.12323399573677E-017,-1.0,0.0));
#409=DIRECTION('',(1.0,-6.12323399573677E-017,0.0));
#410=CARTESIAN_POINT('',(2.0818995585505E-015,34.0,0.0));
#411=DIRECTION('',(-6.12323399573679E-017,-1.0,0.0));
#412=DIRECTION('',(1.0,-6.12323399573679E-017,0.0));
#413=CARTESIAN_POINT('',(1.83697019872104E-016,3.0,0.0));
#414=DIRECTION('',(6.12323399573677E-017,1.0,0.0));
#415=DIRECTION('',(-1.0,6.12323399573677E-017,0.0));
#416=CARTESIAN_POINT('',(1.83697019872104E-016,3.0,0.0));
#417=DIRECTION('',(6.12323399573677E-017,1.0,0.0));
#418=DIRECTION('',(-1.0,6.12323399573677E-017,0.0));
#419=CARTESIAN_POINT('',(1.9594348786357E-015,31.9999999999988,0.0));
#420=DIRECTION('',(3.06763370137166E-017,1.0,-1.66106740317785E-018));
#421=DIRECTION('',(-1.0,3.06763370137166E-017,2.0474236489126E-050));
#422=CARTESIAN_POINT('',(2.0267904525888E-015,33.0999999999989,0.0));
#423=DIRECTION('',(3.06763370137166E-017,1.0,-1.66106740317785E-018));
#424=DIRECTION('',(-1.0,3.06763370137166E-017,2.0474236489126E-050));
#425=CARTESIAN_POINT('',(2.14313189850787E-015,35.0,0.0));
#426=DIRECTION('',(6.12323399573677E-017,1.0,0.0));
#427=DIRECTION('',(-1.0,6.12323399573677E-017,0.0));
#428=CARTESIAN_POINT('',(7.70371977754894E-031,0.0,0.0));
#429=DIRECTION('',(6.12323399573677E-017,1.0,0.0));
#430=DIRECTION('',(-1.0,6.12323399573677E-017,0.0));
#431=CARTESIAN_POINT('',(2.14313189850787E-015,35.0,0.0));
#432=DIRECTION('',(-6.12323399573677E-017,-1.0,0.0));
#433=DIRECTION('',(1.0,-6.12323399573677E-017,0.0));
#434=CARTESIAN_POINT('',(3.93232194103881E-015,31.9999999999988,-3.73732824324605E-015));
#435=DIRECTION('',(3.06763370137166E-017,1.0,-1.66106740317785E-018));
#436=DIRECTION('',(-1.8385293287779E-013,1.66106740318349E-018,1.0));
#437=CARTESIAN_POINT('',(3.9660659117539E-015,33.0999999999989,-3.73915541738955E-015));
#438=DIRECTION('',(3.06763370137166E-017,1.0,-1.66106740317785E-018));
#439=DIRECTION('',(-1.8385293287779E-013,1.66106740318349E-018,1.0));
#440=PRESENTATION_LAYER_ASSIGNMENT('1','',(#67));
ENDSEC;
END-ISO-10303-21;
