ISO-10303-21;
HEADER;
FILE_DESCRIPTION(('STEP AP214'),'1');
FILE_NAME('couteau.stp','2018-07-24T12:47:30',('Chol Christophe'),('CCS Eyewear'),'Spatial InterOp 3D',' ',' ');
FILE_SCHEMA(('automotive_design'));
ENDSEC;
DATA;
#1=MECHANICAL_DESIGN_GEOMETRIC_PRESENTATION_REPRESENTATION(' ',(#10,#11,#12,#13,#14,#15,#16,#17,#18,#19,#20,#21,#22,#23,#24,#25,#26),#6);
#2=PRODUCT_DEFINITION_CONTEXT('',#27,'design');
#3=APPLICATION_PROTOCOL_DEFINITION('INTERNATIONAL STANDARD','automotive_design',1994,#27);
#4=PRODUCT_CATEGORY_RELATIONSHIP('NONE','NONE',#28,#29);
#5=SHAPE_DEFINITION_REPRESENTATION(#30,#31);
#6= (GEOMETRIC_REPRESENTATION_CONTEXT(3)GLOBAL_UNCERTAINTY_ASSIGNED_CONTEXT((#34))GLOBAL_UNIT_ASSIGNED_CONTEXT((#36,#37,#38))REPRESENTATION_CONTEXT('NONE','WORKSPACE'));
#10=STYLED_ITEM('',(#40),#41);
#11=STYLED_ITEM('',(#42),#43);
#12=STYLED_ITEM('',(#44),#45);
#13=STYLED_ITEM('',(#46),#47);
#14=STYLED_ITEM('',(#48),#49);
#15=STYLED_ITEM('',(#50),#51);
#16=STYLED_ITEM('',(#52),#53);
#17=STYLED_ITEM('',(#54),#55);
#18=STYLED_ITEM('',(#56),#57);
#19=STYLED_ITEM('',(#58),#59);
#20=STYLED_ITEM('',(#60),#61);
#21=STYLED_ITEM('',(#62),#63);
#22=STYLED_ITEM('',(#64),#65);
#23=STYLED_ITEM('',(#66),#67);
#24=STYLED_ITEM('',(#68),#69);
#25=STYLED_ITEM('',(#70),#71);
#26=STYLED_ITEM('',(#72),#73);
#27=APPLICATION_CONTEXT(' ');
#28=PRODUCT_CATEGORY('part','NONE');
#29=PRODUCT_RELATED_PRODUCT_CATEGORY('detail',' ',(#74));
#30=PRODUCT_DEFINITION_SHAPE('NONE','NONE',#75);
#31=ADVANCED_BREP_SHAPE_REPRESENTATION('Pi\X2\00C300A8\X0\ce_73207',(#49,#76),#6);
#34=UNCERTAINTY_MEASURE_WITH_UNIT(LENGTH_MEASURE(1.0E-006),#36,'','');
#36= (CONVERSION_BASED_UNIT('INCH',#79)LENGTH_UNIT()NAMED_UNIT(#82));
#37= (NAMED_UNIT(#84)PLANE_ANGLE_UNIT()SI_UNIT($,.RADIAN.));
#38= (NAMED_UNIT(#84)SOLID_ANGLE_UNIT()SI_UNIT($,.STERADIAN.));
#40=PRESENTATION_STYLE_ASSIGNMENT((#90));
#41=ADVANCED_FACE('',(#91),#92,.T.);
#42=PRESENTATION_STYLE_ASSIGNMENT((#93));
#43=ADVANCED_FACE('',(#94),#95,.T.);
#44=PRESENTATION_STYLE_ASSIGNMENT((#96));
#45=ADVANCED_FACE('',(#97),#98,.T.);
#46=PRESENTATION_STYLE_ASSIGNMENT((#99));
#47=ADVANCED_FACE('',(#100),#101,.T.);
#48=PRESENTATION_STYLE_ASSIGNMENT((#102));
#49=MANIFOLD_SOLID_BREP('Pi\X2\00C300A8\X0\ce_73207',#103);
#50=PRESENTATION_STYLE_ASSIGNMENT((#104));
#51=ADVANCED_FACE('',(#105),#106,.T.);
#52=PRESENTATION_STYLE_ASSIGNMENT((#107));
#53=ADVANCED_FACE('',(#108),#109,.T.);
#54=PRESENTATION_STYLE_ASSIGNMENT((#110));
#55=ADVANCED_FACE('',(#111),#112,.T.);
#56=PRESENTATION_STYLE_ASSIGNMENT((#113));
#57=ADVANCED_FACE('',(#114),#115,.T.);
#58=PRESENTATION_STYLE_ASSIGNMENT((#116));
#59=ADVANCED_FACE('',(#117),#118,.T.);
#60=PRESENTATION_STYLE_ASSIGNMENT((#119));
#61=ADVANCED_FACE('',(#120),#121,.T.);
#62=PRESENTATION_STYLE_ASSIGNMENT((#122));
#63=ADVANCED_FACE('',(#123),#124,.T.);
#64=PRESENTATION_STYLE_ASSIGNMENT((#125));
#65=ADVANCED_FACE('',(#126),#127,.T.);
#66=PRESENTATION_STYLE_ASSIGNMENT((#128));
#67=ADVANCED_FACE('',(#129),#130,.T.);
#68=PRESENTATION_STYLE_ASSIGNMENT((#131));
#69=ADVANCED_FACE('',(#132),#133,.T.);
#70=PRESENTATION_STYLE_ASSIGNMENT((#134));
#71=ADVANCED_FACE('',(#135),#136,.T.);
#72=PRESENTATION_STYLE_ASSIGNMENT((#137));
#73=ADVANCED_FACE('',(#138),#139,.F.);
#74=PRODUCT('Pi\X2\00C300A8\X0\ce_73207','Pi\X2\00C300A8\X0\ce_73207','PART-Pi\X2\00C300A8\X0\ce_73207-DESC',(#140));
#75=PRODUCT_DEFINITION('NONE','NONE',#141,#2);
#76=AXIS2_PLACEMENT_3D('',#142,#143,#144);
#79=LENGTH_MEASURE_WITH_UNIT(LENGTH_MEASURE(25.4),#145);
#82=DIMENSIONAL_EXPONENTS(1.0,0.0,0.0,0.0,0.0,0.0,0.0);
#84=DIMENSIONAL_EXPONENTS(0.0,0.0,0.0,0.0,0.0,0.0,0.0);
#90=SURFACE_STYLE_USAGE(.BOTH.,#146);
#91=FACE_OUTER_BOUND('',#147,.T.);
#92=PLANE('',#148);
#93=SURFACE_STYLE_USAGE(.BOTH.,#149);
#94=FACE_OUTER_BOUND('',#150,.T.);
#95=PLANE('',#151);
#96=SURFACE_STYLE_USAGE(.BOTH.,#152);
#97=FACE_OUTER_BOUND('',#153,.T.);
#98=PLANE('',#154);
#99=SURFACE_STYLE_USAGE(.BOTH.,#155);
#100=FACE_OUTER_BOUND('',#156,.T.);
#101=PLANE('',#157);
#102=SURFACE_STYLE_USAGE(.BOTH.,#158);
#103=CLOSED_SHELL('',(#69,#43,#71,#47,#55,#63,#41,#65,#59,#61,#51,#45,#57,#67,#53,#73));
#104=SURFACE_STYLE_USAGE(.BOTH.,#159);
#105=FACE_OUTER_BOUND('',#160,.T.);
#106=PLANE('',#161);
#107=SURFACE_STYLE_USAGE(.BOTH.,#162);
#108=FACE_OUTER_BOUND('',#163,.T.);
#109=PLANE('',#164);
#110=SURFACE_STYLE_USAGE(.BOTH.,#165);
#111=FACE_OUTER_BOUND('',#166,.T.);
#112=PLANE('',#167);
#113=SURFACE_STYLE_USAGE(.BOTH.,#168);
#114=FACE_OUTER_BOUND('',#169,.T.);
#115=PLANE('',#170);
#116=SURFACE_STYLE_USAGE(.BOTH.,#171);
#117=FACE_OUTER_BOUND('',#172,.T.);
#118=PLANE('',#173);
#119=SURFACE_STYLE_USAGE(.BOTH.,#174);
#120=FACE_OUTER_BOUND('',#175,.T.);
#121=PLANE('',#176);
#122=SURFACE_STYLE_USAGE(.BOTH.,#177);
#123=FACE_OUTER_BOUND('',#178,.T.);
#124=PLANE('',#179);
#125=SURFACE_STYLE_USAGE(.BOTH.,#180);
#126=FACE_OUTER_BOUND('',#181,.T.);
#127=PLANE('',#182);
#128=SURFACE_STYLE_USAGE(.BOTH.,#183);
#129=FACE_OUTER_BOUND('',#184,.T.);
#130=PLANE('',#185);
#131=SURFACE_STYLE_USAGE(.BOTH.,#186);
#132=FACE_OUTER_BOUND('',#187,.T.);
#133=PLANE('',#188);
#134=SURFACE_STYLE_USAGE(.BOTH.,#189);
#135=FACE_OUTER_BOUND('',#190,.T.);
#136=PLANE('',#191);
#137=SURFACE_STYLE_USAGE(.BOTH.,#192);
#138=FACE_OUTER_BOUND('',#193,.T.);
#139=PLANE('',#194);
#140=PRODUCT_CONTEXT('',#27,'mechanical');
#141=PRODUCT_DEFINITION_FORMATION_WITH_SPECIFIED_SOURCE(' ','NONE',#74,.NOT_KNOWN.);
#142=CARTESIAN_POINT('',(0.0,0.0,0.0));
#143=DIRECTION('',(0.0,0.0,1.0));
#144=DIRECTION('',(1.0,0.0,0.0));
#145= (NAMED_UNIT(#82)LENGTH_UNIT()SI_UNIT(.MILLI.,.METRE.));
#146=SURFACE_SIDE_STYLE('',(#196));
#147=EDGE_LOOP('',(#197,#198,#199,#200));
#148=AXIS2_PLACEMENT_3D('',#201,#202,#203);
#149=SURFACE_SIDE_STYLE('',(#204));
#150=EDGE_LOOP('',(#205,#206,#207,#208));
#151=AXIS2_PLACEMENT_3D('',#209,#210,#211);
#152=SURFACE_SIDE_STYLE('',(#212));
#153=EDGE_LOOP('',(#213,#214,#215,#216));
#154=AXIS2_PLACEMENT_3D('',#217,#218,#219);
#155=SURFACE_SIDE_STYLE('',(#220));
#156=EDGE_LOOP('',(#221,#222,#223,#224));
#157=AXIS2_PLACEMENT_3D('',#225,#226,#227);
#158=SURFACE_SIDE_STYLE('',(#228));
#159=SURFACE_SIDE_STYLE('',(#229));
#160=EDGE_LOOP('',(#230,#231,#232,#233));
#161=AXIS2_PLACEMENT_3D('',#234,#235,#236);
#162=SURFACE_SIDE_STYLE('',(#237));
#163=EDGE_LOOP('',(#238,#239,#240,#241,#242,#243,#244,#245,#246,#247,#248,#249,#250,#251));
#164=AXIS2_PLACEMENT_3D('',#252,#253,#254);
#165=SURFACE_SIDE_STYLE('',(#255));
#166=EDGE_LOOP('',(#256,#257,#258,#259));
#167=AXIS2_PLACEMENT_3D('',#260,#261,#262);
#168=SURFACE_SIDE_STYLE('',(#263));
#169=EDGE_LOOP('',(#264,#265,#266,#267));
#170=AXIS2_PLACEMENT_3D('',#268,#269,#270);
#171=SURFACE_SIDE_STYLE('',(#271));
#172=EDGE_LOOP('',(#272,#273,#274,#275));
#173=AXIS2_PLACEMENT_3D('',#276,#277,#278);
#174=SURFACE_SIDE_STYLE('',(#279));
#175=EDGE_LOOP('',(#280,#281,#282,#283));
#176=AXIS2_PLACEMENT_3D('',#284,#285,#286);
#177=SURFACE_SIDE_STYLE('',(#287));
#178=EDGE_LOOP('',(#288,#289,#290,#291));
#179=AXIS2_PLACEMENT_3D('',#292,#293,#294);
#180=SURFACE_SIDE_STYLE('',(#295));
#181=EDGE_LOOP('',(#296,#297,#298,#299));
#182=AXIS2_PLACEMENT_3D('',#300,#301,#302);
#183=SURFACE_SIDE_STYLE('',(#303));
#184=EDGE_LOOP('',(#304,#305,#306,#307));
#185=AXIS2_PLACEMENT_3D('',#308,#309,#310);
#186=SURFACE_SIDE_STYLE('',(#311));
#187=EDGE_LOOP('',(#312,#313,#314,#315));
#188=AXIS2_PLACEMENT_3D('',#316,#317,#318);
#189=SURFACE_SIDE_STYLE('',(#319));
#190=EDGE_LOOP('',(#320,#321,#322,#323));
#191=AXIS2_PLACEMENT_3D('',#324,#325,#326);
#192=SURFACE_SIDE_STYLE('',(#327));
#193=EDGE_LOOP('',(#328,#329,#330,#331,#332,#333,#334,#335,#336,#337,#338,#339,#340,#341));
#194=AXIS2_PLACEMENT_3D('',#342,#343,#344);
#196=SURFACE_STYLE_FILL_AREA(#345);
#197=ORIENTED_EDGE('',*,*,#346,.T.);
#198=ORIENTED_EDGE('',*,*,#347,.F.);
#199=ORIENTED_EDGE('',*,*,#348,.F.);
#200=ORIENTED_EDGE('',*,*,#349,.T.);
#201=CARTESIAN_POINT('',(4.76158726158535,0.0585825753813413,-5.55111512312578E-017));
#202=DIRECTION('',(0.0,1.0,0.0));
#203=DIRECTION('',(-1.0,0.0,0.0));
#204=SURFACE_STYLE_FILL_AREA(#350);
#205=ORIENTED_EDGE('',*,*,#351,.T.);
#206=ORIENTED_EDGE('',*,*,#352,.F.);
#207=ORIENTED_EDGE('',*,*,#353,.T.);
#208=ORIENTED_EDGE('',*,*,#354,.T.);
#209=CARTESIAN_POINT('',(-0.131889763779528,-0.390314960629921,0.0));
#210=DIRECTION('',(-1.0444320305733E-016,-1.0,0.0));
#211=DIRECTION('',(1.0,-1.0444320305733E-016,0.0));
#212=SURFACE_STYLE_FILL_AREA(#355);
#213=ORIENTED_EDGE('',*,*,#356,.T.);
#214=ORIENTED_EDGE('',*,*,#357,.F.);
#215=ORIENTED_EDGE('',*,*,#358,.T.);
#216=ORIENTED_EDGE('',*,*,#359,.T.);
#217=CARTESIAN_POINT('',(6.9448907785901,-0.215450595532423,-5.55111512312578E-017));
#218=DIRECTION('',(-1.0,0.0,0.0));
#219=DIRECTION('',(0.0,-1.0,0.0));
#220=SURFACE_STYLE_FILL_AREA(#360);
#221=ORIENTED_EDGE('',*,*,#361,.T.);
#222=ORIENTED_EDGE('',*,*,#362,.F.);
#223=ORIENTED_EDGE('',*,*,#363,.T.);
#224=ORIENTED_EDGE('',*,*,#364,.T.);
#225=CARTESIAN_POINT('',(-0.131889763779528,0.393700787401575,0.0));
#226=DIRECTION('',(0.0,1.0,-0.0));
#227=DIRECTION('',(-1.0,0.0,0.0));
#228=SURFACE_STYLE_FILL_AREA(#365);
#229=SURFACE_STYLE_FILL_AREA(#366);
#230=ORIENTED_EDGE('',*,*,#367,.T.);
#231=ORIENTED_EDGE('',*,*,#359,.F.);
#232=ORIENTED_EDGE('',*,*,#368,.F.);
#233=ORIENTED_EDGE('',*,*,#369,.T.);
#234=CARTESIAN_POINT('',(7.21063881008616,-0.372318615683504,-7.77555756156289E-017));
#235=DIRECTION('',(0.0,-1.0,0.0));
#236=DIRECTION('',(1.0,0.0,-8.37049450908186E-017));
#237=SURFACE_STYLE_FILL_AREA(#370);
#238=ORIENTED_EDGE('',*,*,#371,.F.);
#239=ORIENTED_EDGE('',*,*,#372,.F.);
#240=ORIENTED_EDGE('',*,*,#373,.F.);
#241=ORIENTED_EDGE('',*,*,#356,.F.);
#242=ORIENTED_EDGE('',*,*,#367,.F.);
#243=ORIENTED_EDGE('',*,*,#374,.F.);
#244=ORIENTED_EDGE('',*,*,#375,.F.);
#245=ORIENTED_EDGE('',*,*,#376,.F.);
#246=ORIENTED_EDGE('',*,*,#346,.F.);
#247=ORIENTED_EDGE('',*,*,#377,.F.);
#248=ORIENTED_EDGE('',*,*,#378,.F.);
#249=ORIENTED_EDGE('',*,*,#361,.F.);
#250=ORIENTED_EDGE('',*,*,#379,.F.);
#251=ORIENTED_EDGE('',*,*,#351,.F.);
#252=CARTESIAN_POINT('',(3.5468502281295,0.000475960695682869,0.31496062992126));
#253=DIRECTION('',(1.04659512891052E-017,9.5093094186483E-018,1.0));
#254=DIRECTION('',(1.0,0.0,-1.04659512891052E-017));
#255=SURFACE_STYLE_FILL_AREA(#380);
#256=ORIENTED_EDGE('',*,*,#378,.T.);
#257=ORIENTED_EDGE('',*,*,#381,.F.);
#258=ORIENTED_EDGE('',*,*,#382,.T.);
#259=ORIENTED_EDGE('',*,*,#362,.T.);
#260=CARTESIAN_POINT('',(0.133858267716535,0.255905511811024,0.0));
#261=DIRECTION('',(1.0,0.0,0.0));
#262=DIRECTION('',(0.0,1.0,0.0));
#263=SURFACE_STYLE_FILL_AREA(#383);
#264=ORIENTED_EDGE('',*,*,#373,.T.);
#265=ORIENTED_EDGE('',*,*,#384,.F.);
#266=ORIENTED_EDGE('',*,*,#385,.T.);
#267=ORIENTED_EDGE('',*,*,#357,.T.);
#268=CARTESIAN_POINT('',(4.76158726158535,-0.0585825753813413,-5.55111512312578E-017));
#269=DIRECTION('',(0.0,-1.0,0.0));
#270=DIRECTION('',(1.0,0.0,0.0));
#271=SURFACE_STYLE_FILL_AREA(#386);
#272=ORIENTED_EDGE('',*,*,#375,.T.);
#273=ORIENTED_EDGE('',*,*,#387,.F.);
#274=ORIENTED_EDGE('',*,*,#388,.F.);
#275=ORIENTED_EDGE('',*,*,#389,.T.);
#276=CARTESIAN_POINT('',(7.21063881008616,0.375704442455158,-1.0E-016));
#277=DIRECTION('',(0.0,1.0,0.0));
#278=DIRECTION('',(-1.0,0.0,0.0));
#279=SURFACE_STYLE_FILL_AREA(#390);
#280=ORIENTED_EDGE('',*,*,#374,.T.);
#281=ORIENTED_EDGE('',*,*,#369,.F.);
#282=ORIENTED_EDGE('',*,*,#391,.F.);
#283=ORIENTED_EDGE('',*,*,#387,.T.);
#284=CARTESIAN_POINT('',(7.47638684158222,0.00169291338582678,-1.0E-016));
#285=DIRECTION('',(1.0,0.0,-0.0));
#286=DIRECTION('',(-0.0,1.0,0.0));
#287=SURFACE_STYLE_FILL_AREA(#392);
#288=ORIENTED_EDGE('',*,*,#377,.T.);
#289=ORIENTED_EDGE('',*,*,#349,.F.);
#290=ORIENTED_EDGE('',*,*,#393,.F.);
#291=ORIENTED_EDGE('',*,*,#381,.T.);
#292=CARTESIAN_POINT('',(1.35607100614857,0.0883464058009069,-2.77555756156289E-017));
#293=DIRECTION('',(0.024345196082102,0.999703611790877,-9.62964972193618E-035));
#294=DIRECTION('',(-0.999703611790877,0.024345196082102,2.2702552769885E-017));
#295=SURFACE_STYLE_FILL_AREA(#394);
#296=ORIENTED_EDGE('',*,*,#376,.T.);
#297=ORIENTED_EDGE('',*,*,#389,.F.);
#298=ORIENTED_EDGE('',*,*,#395,.F.);
#299=ORIENTED_EDGE('',*,*,#347,.T.);
#300=CARTESIAN_POINT('',(6.9448907785901,0.21714350891825,-5.55111512312578E-017));
#301=DIRECTION('',(-1.0,-0.0,0.0));
#302=DIRECTION('',(0.0,-1.0,-0.0));
#303=SURFACE_STYLE_FILL_AREA(#396);
#304=ORIENTED_EDGE('',*,*,#372,.T.);
#305=ORIENTED_EDGE('',*,*,#397,.F.);
#306=ORIENTED_EDGE('',*,*,#398,.T.);
#307=ORIENTED_EDGE('',*,*,#384,.T.);
#308=CARTESIAN_POINT('',(1.35607100614857,-0.0883464058009069,-2.77555756156289E-017));
#309=DIRECTION('',(0.024345196082102,-0.999703611790877,-9.62964972193618E-035));
#310=DIRECTION('',(0.999703611790877,0.024345196082102,-2.2702552769885E-017));
#311=SURFACE_STYLE_FILL_AREA(#399);
#312=ORIENTED_EDGE('',*,*,#371,.T.);
#313=ORIENTED_EDGE('',*,*,#354,.F.);
#314=ORIENTED_EDGE('',*,*,#400,.F.);
#315=ORIENTED_EDGE('',*,*,#397,.T.);
#316=CARTESIAN_POINT('',(0.133858267716535,-0.254212598425197,0.0));
#317=DIRECTION('',(1.0,0.0,-0.0));
#318=DIRECTION('',(-0.0,1.0,0.0));
#319=SURFACE_STYLE_FILL_AREA(#401);
#320=ORIENTED_EDGE('',*,*,#379,.T.);
#321=ORIENTED_EDGE('',*,*,#364,.F.);
#322=ORIENTED_EDGE('',*,*,#402,.T.);
#323=ORIENTED_EDGE('',*,*,#352,.T.);
#324=CARTESIAN_POINT('',(-0.397637795275591,0.00169291338582683,0.0));
#325=DIRECTION('',(-1.0,0.0,0.0));
#326=DIRECTION('',(0.0,-1.0,0.0));
#327=SURFACE_STYLE_FILL_AREA(#403);
#328=ORIENTED_EDGE('',*,*,#398,.F.);
#329=ORIENTED_EDGE('',*,*,#400,.T.);
#330=ORIENTED_EDGE('',*,*,#353,.F.);
#331=ORIENTED_EDGE('',*,*,#402,.F.);
#332=ORIENTED_EDGE('',*,*,#363,.F.);
#333=ORIENTED_EDGE('',*,*,#382,.F.);
#334=ORIENTED_EDGE('',*,*,#393,.T.);
#335=ORIENTED_EDGE('',*,*,#348,.T.);
#336=ORIENTED_EDGE('',*,*,#395,.T.);
#337=ORIENTED_EDGE('',*,*,#388,.T.);
#338=ORIENTED_EDGE('',*,*,#391,.T.);
#339=ORIENTED_EDGE('',*,*,#368,.T.);
#340=ORIENTED_EDGE('',*,*,#358,.F.);
#341=ORIENTED_EDGE('',*,*,#385,.F.);
#342=CARTESIAN_POINT('',(3.5468502281295,0.000475960695682869,-4.46811317308091E-017));
#343=DIRECTION('',(1.04659512891052E-017,9.5093094186483E-018,1.0));
#344=DIRECTION('',(1.0,0.0,-1.04659512891052E-017));
#345=FILL_AREA_STYLE('',(#404));
#346=EDGE_CURVE('',#405,#406,#407,.T.);
#347=EDGE_CURVE('',#408,#406,#409,.T.);
#348=EDGE_CURVE('',#410,#408,#411,.T.);
#349=EDGE_CURVE('',#410,#405,#412,.T.);
#350=FILL_AREA_STYLE('',(#413));
#351=EDGE_CURVE('',#414,#415,#416,.T.);
#352=EDGE_CURVE('',#417,#415,#418,.T.);
#353=EDGE_CURVE('',#417,#419,#420,.T.);
#354=EDGE_CURVE('',#419,#414,#421,.T.);
#355=FILL_AREA_STYLE('',(#422));
#356=EDGE_CURVE('',#423,#424,#425,.T.);
#357=EDGE_CURVE('',#426,#424,#427,.T.);
#358=EDGE_CURVE('',#426,#428,#429,.T.);
#359=EDGE_CURVE('',#428,#423,#430,.T.);
#360=FILL_AREA_STYLE('',(#431));
#361=EDGE_CURVE('',#432,#433,#434,.T.);
#362=EDGE_CURVE('',#435,#433,#436,.T.);
#363=EDGE_CURVE('',#435,#437,#438,.T.);
#364=EDGE_CURVE('',#437,#432,#439,.T.);
#365=FILL_AREA_STYLE('',(#440));
#366=FILL_AREA_STYLE('',(#441));
#367=EDGE_CURVE('',#442,#423,#443,.T.);
#368=EDGE_CURVE('',#444,#428,#445,.T.);
#369=EDGE_CURVE('',#444,#442,#446,.T.);
#370=FILL_AREA_STYLE('',(#447));
#371=EDGE_CURVE('',#448,#414,#449,.T.);
#372=EDGE_CURVE('',#450,#448,#451,.T.);
#373=EDGE_CURVE('',#424,#450,#452,.T.);
#374=EDGE_CURVE('',#453,#442,#454,.T.);
#375=EDGE_CURVE('',#455,#453,#456,.T.);
#376=EDGE_CURVE('',#406,#455,#457,.T.);
#377=EDGE_CURVE('',#458,#405,#459,.T.);
#378=EDGE_CURVE('',#433,#458,#460,.T.);
#379=EDGE_CURVE('',#415,#432,#461,.T.);
#380=FILL_AREA_STYLE('',(#462));
#381=EDGE_CURVE('',#463,#458,#464,.T.);
#382=EDGE_CURVE('',#463,#435,#465,.T.);
#383=FILL_AREA_STYLE('',(#466));
#384=EDGE_CURVE('',#467,#450,#468,.T.);
#385=EDGE_CURVE('',#467,#426,#469,.T.);
#386=FILL_AREA_STYLE('',(#470));
#387=EDGE_CURVE('',#471,#453,#472,.T.);
#388=EDGE_CURVE('',#473,#471,#474,.T.);
#389=EDGE_CURVE('',#473,#455,#475,.T.);
#390=FILL_AREA_STYLE('',(#476));
#391=EDGE_CURVE('',#471,#444,#477,.T.);
#392=FILL_AREA_STYLE('',(#478));
#393=EDGE_CURVE('',#463,#410,#479,.T.);
#394=FILL_AREA_STYLE('',(#480));
#395=EDGE_CURVE('',#408,#473,#481,.T.);
#396=FILL_AREA_STYLE('',(#482));
#397=EDGE_CURVE('',#483,#448,#484,.T.);
#398=EDGE_CURVE('',#483,#467,#485,.T.);
#399=FILL_AREA_STYLE('',(#486));
#400=EDGE_CURVE('',#483,#419,#487,.T.);
#401=FILL_AREA_STYLE('',(#488));
#402=EDGE_CURVE('',#437,#417,#489,.T.);
#403=FILL_AREA_STYLE('',(#490));
#404=FILL_AREA_STYLE_COLOUR('',#491);
#405=VERTEX_POINT('',#492);
#406=VERTEX_POINT('',#493);
#407=LINE('',#494,#495);
#408=VERTEX_POINT('',#496);
#409=LINE('',#497,#498);
#410=VERTEX_POINT('',#499);
#411=LINE('',#500,#501);
#412=LINE('',#502,#503);
#413=FILL_AREA_STYLE_COLOUR('',#504);
#414=VERTEX_POINT('',#505);
#415=VERTEX_POINT('',#506);
#416=LINE('',#507,#508);
#417=VERTEX_POINT('',#509);
#418=LINE('',#510,#511);
#419=VERTEX_POINT('',#512);
#420=LINE('',#513,#514);
#421=LINE('',#515,#516);
#422=FILL_AREA_STYLE_COLOUR('',#517);
#423=VERTEX_POINT('',#518);
#424=VERTEX_POINT('',#519);
#425=LINE('',#520,#521);
#426=VERTEX_POINT('',#522);
#427=LINE('',#523,#524);
#428=VERTEX_POINT('',#525);
#429=LINE('',#526,#527);
#430=LINE('',#528,#529);
#431=FILL_AREA_STYLE_COLOUR('',#530);
#432=VERTEX_POINT('',#531);
#433=VERTEX_POINT('',#532);
#434=LINE('',#533,#534);
#435=VERTEX_POINT('',#535);
#436=LINE('',#536,#537);
#437=VERTEX_POINT('',#538);
#438=LINE('',#539,#540);
#439=LINE('',#541,#542);
#440=FILL_AREA_STYLE_COLOUR('',#543);
#441=FILL_AREA_STYLE_COLOUR('',#544);
#442=VERTEX_POINT('',#545);
#443=LINE('',#546,#547);
#444=VERTEX_POINT('',#548);
#445=LINE('',#549,#550);
#446=LINE('',#551,#552);
#447=FILL_AREA_STYLE_COLOUR('',#553);
#448=VERTEX_POINT('',#554);
#449=LINE('',#555,#556);
#450=VERTEX_POINT('',#557);
#451=LINE('',#558,#559);
#452=LINE('',#560,#561);
#453=VERTEX_POINT('',#562);
#454=LINE('',#563,#564);
#455=VERTEX_POINT('',#565);
#456=LINE('',#566,#567);
#457=LINE('',#568,#569);
#458=VERTEX_POINT('',#570);
#459=LINE('',#571,#572);
#460=LINE('',#573,#574);
#461=LINE('',#575,#576);
#462=FILL_AREA_STYLE_COLOUR('',#577);
#463=VERTEX_POINT('',#578);
#464=LINE('',#579,#580);
#465=LINE('',#581,#582);
#466=FILL_AREA_STYLE_COLOUR('',#583);
#467=VERTEX_POINT('',#584);
#468=LINE('',#585,#586);
#469=LINE('',#587,#588);
#470=FILL_AREA_STYLE_COLOUR('',#589);
#471=VERTEX_POINT('',#590);
#472=LINE('',#591,#592);
#473=VERTEX_POINT('',#593);
#474=LINE('',#594,#595);
#475=LINE('',#596,#597);
#476=FILL_AREA_STYLE_COLOUR('',#598);
#477=LINE('',#599,#600);
#478=FILL_AREA_STYLE_COLOUR('',#601);
#479=LINE('',#602,#603);
#480=FILL_AREA_STYLE_COLOUR('',#604);
#481=LINE('',#605,#606);
#482=FILL_AREA_STYLE_COLOUR('',#607);
#483=VERTEX_POINT('',#608);
#484=LINE('',#609,#610);
#485=LINE('',#611,#612);
#486=FILL_AREA_STYLE_COLOUR('',#613);
#487=LINE('',#614,#615);
#488=FILL_AREA_STYLE_COLOUR('',#616);
#489=LINE('',#617,#618);
#490=FILL_AREA_STYLE_COLOUR('',#619);
#491=COLOUR_RGB('',0.156862750649452,0.549019634723663,0.941176474094391);
#492=CARTESIAN_POINT('',(2.57828374458061,0.0585825753813413,0.31496062992126));
#493=CARTESIAN_POINT('',(6.9448907785901,0.0585825753813413,0.31496062992126));
#494=CARTESIAN_POINT('',(2.57828374458061,0.0585825753813413,0.31496062992126));
#495=VECTOR('',#620,1.0);
#496=CARTESIAN_POINT('',(6.9448907785901,0.0585825753813413,-5.55111512312578E-017));
#497=CARTESIAN_POINT('',(6.9448907785901,0.0585825753813413,-5.55111512312578E-017));
#498=VECTOR('',#621,1.0);
#499=CARTESIAN_POINT('',(2.57828374458061,0.0585825753813413,-5.55111512312578E-017));
#500=CARTESIAN_POINT('',(2.57828374458061,0.0585825753813413,-5.55111512312578E-017));
#501=VECTOR('',#622,1.0);
#502=CARTESIAN_POINT('',(2.57828374458061,0.0585825753813413,-5.55111512312578E-017));
#503=VECTOR('',#623,1.0);
#504=COLOUR_RGB('',0.156862750649452,0.549019634723663,0.941176474094391);
#505=CARTESIAN_POINT('',(0.133858267716535,-0.390314960629921,0.31496062992126));
#506=CARTESIAN_POINT('',(-0.397637795275591,-0.390314960629921,0.31496062992126));
#507=CARTESIAN_POINT('',(-0.397637795275591,-0.390314960629921,0.31496062992126));
#508=VECTOR('',#624,1.0);
#509=CARTESIAN_POINT('',(-0.397637795275591,-0.390314960629921,0.0));
#510=CARTESIAN_POINT('',(-0.397637795275591,-0.390314960629921,0.0));
#511=VECTOR('',#625,1.0);
#512=CARTESIAN_POINT('',(0.133858267716535,-0.390314960629921,0.0));
#513=CARTESIAN_POINT('',(-0.397637795275591,-0.390314960629921,0.0));
#514=VECTOR('',#626,1.0);
#515=CARTESIAN_POINT('',(0.133858267716535,-0.390314960629921,0.0));
#516=VECTOR('',#627,1.0);
#517=COLOUR_RGB('',0.156862750649452,0.549019634723663,0.941176474094391);
#518=CARTESIAN_POINT('',(6.9448907785901,-0.372318615683504,0.31496062992126));
#519=CARTESIAN_POINT('',(6.9448907785901,-0.0585825753813413,0.31496062992126));
#520=CARTESIAN_POINT('',(6.9448907785901,-0.0585825753813413,0.31496062992126));
#521=VECTOR('',#628,1.0);
#522=CARTESIAN_POINT('',(6.9448907785901,-0.0585825753813413,-5.55111512312578E-017));
#523=CARTESIAN_POINT('',(6.9448907785901,-0.0585825753813413,-5.55111512312578E-017));
#524=VECTOR('',#629,1.0);
#525=CARTESIAN_POINT('',(6.9448907785901,-0.372318615683504,-5.55111512312578E-017));
#526=CARTESIAN_POINT('',(6.9448907785901,-0.0585825753813413,-5.55111512312578E-017));
#527=VECTOR('',#630,1.0);
#528=CARTESIAN_POINT('',(6.9448907785901,-0.372318615683504,-5.55111512312578E-017));
#529=VECTOR('',#631,1.0);
#530=COLOUR_RGB('',0.156862750649452,0.549019634723663,0.941176474094391);
#531=CARTESIAN_POINT('',(-0.397637795275591,0.393700787401575,0.31496062992126));
#532=CARTESIAN_POINT('',(0.133858267716536,0.393700787401575,0.31496062992126));
#533=CARTESIAN_POINT('',(0.133858267716536,0.393700787401575,0.31496062992126));
#534=VECTOR('',#632,1.0);
#535=CARTESIAN_POINT('',(0.133858267716536,0.393700787401575,0.0));
#536=CARTESIAN_POINT('',(0.133858267716536,0.393700787401575,0.0));
#537=VECTOR('',#633,1.0);
#538=CARTESIAN_POINT('',(-0.397637795275591,0.393700787401575,0.0));
#539=CARTESIAN_POINT('',(0.133858267716536,0.393700787401575,0.0));
#540=VECTOR('',#634,1.0);
#541=CARTESIAN_POINT('',(-0.397637795275591,0.393700787401575,0.0));
#542=VECTOR('',#635,1.0);
#543=COLOUR_RGB('',0.156862750649452,0.549019634723663,0.941176474094391);
#544=COLOUR_RGB('',0.156862750649452,0.549019634723663,0.941176474094391);
#545=CARTESIAN_POINT('',(7.47638684158222,-0.372318615683504,0.31496062992126));
#546=CARTESIAN_POINT('',(7.47638684158222,-0.372318615683504,0.31496062992126));
#547=VECTOR('',#636,1.0);
#548=CARTESIAN_POINT('',(7.47638684158222,-0.372318615683504,-1.0E-016));
#549=CARTESIAN_POINT('',(7.47638684158222,-0.372318615683504,-1.0E-016));
#550=VECTOR('',#637,1.0);
#551=CARTESIAN_POINT('',(7.47638684158222,-0.372318615683504,-1.0E-016));
#552=VECTOR('',#638,1.0);
#553=COLOUR_RGB('',0.156862750649452,0.549019634723663,0.941176474094391);
#554=CARTESIAN_POINT('',(0.133858267716535,-0.118110236220472,0.31496062992126));
#555=CARTESIAN_POINT('',(0.133858267716535,-0.118110236220472,0.31496062992126));
#556=VECTOR('',#639,1.0);
#557=CARTESIAN_POINT('',(2.57828374458061,-0.0585825753813413,0.31496062992126));
#558=CARTESIAN_POINT('',(0.133858267716535,-0.118110236220472,0.31496062992126));
#559=VECTOR('',#640,1.0);
#560=CARTESIAN_POINT('',(2.57828374458061,-0.0585825753813413,0.31496062992126));
#561=VECTOR('',#641,1.0);
#562=CARTESIAN_POINT('',(7.47638684158222,0.375704442455158,0.31496062992126));
#563=CARTESIAN_POINT('',(7.47638684158222,0.375704442455158,0.31496062992126));
#564=VECTOR('',#642,1.0);
#565=CARTESIAN_POINT('',(6.9448907785901,0.375704442455158,0.31496062992126));
#566=CARTESIAN_POINT('',(6.9448907785901,0.375704442455158,0.31496062992126));
#567=VECTOR('',#643,1.0);
#568=CARTESIAN_POINT('',(6.9448907785901,0.0585825753813413,0.31496062992126));
#569=VECTOR('',#644,1.0);
#570=CARTESIAN_POINT('',(0.133858267716535,0.118110236220472,0.31496062992126));
#571=CARTESIAN_POINT('',(0.133858267716535,0.118110236220472,0.31496062992126));
#572=VECTOR('',#645,1.0);
#573=CARTESIAN_POINT('',(0.133858267716535,0.118110236220472,0.31496062992126));
#574=VECTOR('',#646,1.0);
#575=CARTESIAN_POINT('',(-0.397637795275591,0.393700787401575,0.31496062992126));
#576=VECTOR('',#647,1.0);
#577=COLOUR_RGB('',0.156862750649452,0.549019634723663,0.941176474094391);
#578=CARTESIAN_POINT('',(0.133858267716535,0.118110236220472,0.0));
#579=CARTESIAN_POINT('',(0.133858267716535,0.118110236220472,0.0));
#580=VECTOR('',#648,1.0);
#581=CARTESIAN_POINT('',(0.133858267716535,0.118110236220472,0.0));
#582=VECTOR('',#649,1.0);
#583=COLOUR_RGB('',0.156862750649452,0.549019634723663,0.941176474094391);
#584=CARTESIAN_POINT('',(2.57828374458061,-0.0585825753813413,-5.55111512312578E-017));
#585=CARTESIAN_POINT('',(2.57828374458061,-0.0585825753813413,-5.55111512312578E-017));
#586=VECTOR('',#650,1.0);
#587=CARTESIAN_POINT('',(2.57828374458061,-0.0585825753813413,-5.55111512312578E-017));
#588=VECTOR('',#651,1.0);
#589=COLOUR_RGB('',0.156862750649452,0.549019634723663,0.941176474094391);
#590=CARTESIAN_POINT('',(7.47638684158222,0.375704442455158,-1.0E-016));
#591=CARTESIAN_POINT('',(7.47638684158222,0.375704442455158,-1.0E-016));
#592=VECTOR('',#652,1.0);
#593=CARTESIAN_POINT('',(6.9448907785901,0.375704442455158,-5.55111512312578E-017));
#594=CARTESIAN_POINT('',(6.9448907785901,0.375704442455158,-1.0E-016));
#595=VECTOR('',#653,1.0);
#596=CARTESIAN_POINT('',(6.9448907785901,0.375704442455158,-5.55111512312578E-017));
#597=VECTOR('',#654,1.0);
#598=COLOUR_RGB('',0.156862750649452,0.549019634723663,0.941176474094391);
#599=CARTESIAN_POINT('',(7.47638684158222,0.375704442455158,-1.0E-016));
#600=VECTOR('',#655,1.0);
#601=COLOUR_RGB('',0.156862750649452,0.549019634723663,0.941176474094391);
#602=CARTESIAN_POINT('',(0.133858267716535,0.118110236220472,0.0));
#603=VECTOR('',#656,1.0);
#604=COLOUR_RGB('',0.156862750649452,0.549019634723663,0.941176474094391);
#605=CARTESIAN_POINT('',(6.9448907785901,0.0585825753813413,-5.55111512312578E-017));
#606=VECTOR('',#657,1.0);
#607=COLOUR_RGB('',0.156862750649452,0.549019634723663,0.941176474094391);
#608=CARTESIAN_POINT('',(0.133858267716535,-0.118110236220472,0.0));
#609=CARTESIAN_POINT('',(0.133858267716535,-0.118110236220472,0.0));
#610=VECTOR('',#658,1.0);
#611=CARTESIAN_POINT('',(0.133858267716535,-0.118110236220472,0.0));
#612=VECTOR('',#659,1.0);
#613=COLOUR_RGB('',0.156862750649452,0.549019634723663,0.941176474094391);
#614=CARTESIAN_POINT('',(0.133858267716535,-0.118110236220472,0.0));
#615=VECTOR('',#660,1.0);
#616=COLOUR_RGB('',0.156862750649452,0.549019634723663,0.941176474094391);
#617=CARTESIAN_POINT('',(-0.397637795275591,0.393700787401575,0.0));
#618=VECTOR('',#661,1.0);
#619=COLOUR_RGB('',0.156862750649452,0.549019634723663,0.941176474094391);
#620=DIRECTION('',(1.0,0.0,0.0));
#621=DIRECTION('',(0.0,0.0,1.0));
#622=DIRECTION('',(1.0,0.0,0.0));
#623=DIRECTION('',(0.0,0.0,1.0));
#624=DIRECTION('',(-1.0,1.0444320305733E-016,0.0));
#625=DIRECTION('',(0.0,0.0,1.0));
#626=DIRECTION('',(1.0,-1.0444320305733E-016,0.0));
#627=DIRECTION('',(0.0,0.0,1.0));
#628=DIRECTION('',(0.0,1.0,0.0));
#629=DIRECTION('',(0.0,0.0,1.0));
#630=DIRECTION('',(0.0,-1.0,0.0));
#631=DIRECTION('',(0.0,0.0,1.0));
#632=DIRECTION('',(1.0,0.0,0.0));
#633=DIRECTION('',(0.0,0.0,1.0));
#634=DIRECTION('',(-1.0,0.0,0.0));
#635=DIRECTION('',(0.0,0.0,1.0));
#636=DIRECTION('',(-1.0,0.0,8.37049450908186E-017));
#637=DIRECTION('',(-1.0,0.0,8.37049450908186E-017));
#638=DIRECTION('',(0.0,0.0,1.0));
#639=DIRECTION('',(0.0,-1.0,0.0));
#640=DIRECTION('',(-0.999703611790877,-0.024345196082102,2.2702552769885E-017));
#641=DIRECTION('',(-1.0,-0.0,-0.0));
#642=DIRECTION('',(0.0,-1.0,0.0));
#643=DIRECTION('',(1.0,0.0,0.0));
#644=DIRECTION('',(0.0,1.0,0.0));
#645=DIRECTION('',(0.999703611790877,-0.024345196082102,-2.2702552769885E-017));
#646=DIRECTION('',(-0.0,-1.0,-0.0));
#647=DIRECTION('',(0.0,1.0,0.0));
#648=DIRECTION('',(0.0,0.0,1.0));
#649=DIRECTION('',(0.0,1.0,0.0));
#650=DIRECTION('',(0.0,0.0,1.0));
#651=DIRECTION('',(1.0,0.0,0.0));
#652=DIRECTION('',(0.0,0.0,1.0));
#653=DIRECTION('',(1.0,0.0,0.0));
#654=DIRECTION('',(0.0,0.0,1.0));
#655=DIRECTION('',(0.0,-1.0,0.0));
#656=DIRECTION('',(0.999703611790877,-0.024345196082102,-2.2702552769885E-017));
#657=DIRECTION('',(0.0,1.0,0.0));
#658=DIRECTION('',(0.0,0.0,1.0));
#659=DIRECTION('',(0.999703611790877,0.024345196082102,-2.2702552769885E-017));
#660=DIRECTION('',(0.0,-1.0,0.0));
#661=DIRECTION('',(0.0,-1.0,0.0));
#662=PRESENTATION_LAYER_ASSIGNMENT('Calque1','',(#49));
ENDSEC;
END-ISO-10303-21;
