ISO-10303-21;
HEADER;
FILE_DESCRIPTION(('STEP AP214'),'1');
FILE_NAME('BMR-006a AXE MOYEU HAUT.step','2016-02-17T20:28:47',(' '),(' '),'Spatial InterOp 3D',' ',' ');
FILE_SCHEMA(('automotive_design'));
ENDSEC;
DATA;
#1=MECHANICAL_DESIGN_GEOMETRIC_PRESENTATION_REPRESENTATION(' ',(#10,#11,#12,#13,#14,#15,#16),#6);
#2=PRODUCT_DEFINITION_CONTEXT('',#17,'design');
#3=APPLICATION_PROTOCOL_DEFINITION('INTERNATIONAL STANDARD','automotive_design',1994,#17);
#4=PRODUCT_CATEGORY_RELATIONSHIP('NONE','NONE',#18,#19);
#5=SHAPE_DEFINITION_REPRESENTATION(#20,#21);
#6= (GEOMETRIC_REPRESENTATION_CONTEXT(3)GLOBAL_UNCERTAINTY_ASSIGNED_CONTEXT((#24))GLOBAL_UNIT_ASSIGNED_CONTEXT((#26,#27,#28))REPRESENTATION_CONTEXT('NONE','WORKSPACE'));
#10=STYLED_ITEM('',(#30),#31);
#11=STYLED_ITEM('',(#32),#33);
#12=STYLED_ITEM('',(#34),#35);
#13=STYLED_ITEM('',(#36),#37);
#14=STYLED_ITEM('',(#38),#39);
#15=STYLED_ITEM('',(#40),#41);
#16=STYLED_ITEM('',(#42),#43);
#17=APPLICATION_CONTEXT(' ');
#18=PRODUCT_CATEGORY('part','NONE');
#19=PRODUCT_RELATED_PRODUCT_CATEGORY('detail',' ',(#44));
#20=PRODUCT_DEFINITION_SHAPE('NONE','NONE',#45);
#21=ADVANCED_BREP_SHAPE_REPRESENTATION('AXE MOYEU HAUT',(#46,#47),#6);
#24=UNCERTAINTY_MEASURE_WITH_UNIT(LENGTH_MEASURE(0.001),#26,'','');
#26= (CONVERSION_BASED_UNIT('MILLIMETRE',#50)LENGTH_UNIT()NAMED_UNIT(#53));
#27= (NAMED_UNIT(#55)PLANE_ANGLE_UNIT()SI_UNIT($,.RADIAN.));
#28= (NAMED_UNIT(#55)SOLID_ANGLE_UNIT()SI_UNIT($,.STERADIAN.));
#30=PRESENTATION_STYLE_ASSIGNMENT((#61));
#31=ADVANCED_FACE('',(#62,#63),#64,.F.);
#32=PRESENTATION_STYLE_ASSIGNMENT((#65));
#33=ADVANCED_FACE('',(#66,#67),#68,.T.);
#34=PRESENTATION_STYLE_ASSIGNMENT((#69));
#35=ADVANCED_FACE('',(#70,#71),#72,.T.);
#36=PRESENTATION_STYLE_ASSIGNMENT((#73));
#37=ADVANCED_FACE('',(#74,#75),#76,.T.);
#38=PRESENTATION_STYLE_ASSIGNMENT((#77));
#39=ADVANCED_FACE('',(#78,#79),#80,.T.);
#40=PRESENTATION_STYLE_ASSIGNMENT((#81));
#41=ADVANCED_FACE('',(#82,#83),#84,.F.);
#42=PRESENTATION_STYLE_ASSIGNMENT((#85));
#43=ADVANCED_FACE('',(#86,#87),#88,.T.);
#44=PRODUCT('AXE MOYEU HAUT','AXE MOYEU HAUT','PART-AXE MOYEU HAUT-DESC',(#89));
#45=PRODUCT_DEFINITION('NONE','NONE',#90,#2);
#46=MANIFOLD_SOLID_BREP('AXE MOYEU HAUT',#91);
#47=AXIS2_PLACEMENT_3D('',#92,#93,#94);
#50=LENGTH_MEASURE_WITH_UNIT(LENGTH_MEASURE(1.0),#95);
#53=DIMENSIONAL_EXPONENTS(1.0,0.0,0.0,0.0,0.0,0.0,0.0);
#55=DIMENSIONAL_EXPONENTS(0.0,0.0,0.0,0.0,0.0,0.0,0.0);
#61=SURFACE_STYLE_USAGE(.BOTH.,#96);
#62=FACE_OUTER_BOUND('',#97,.T.);
#63=FACE_OUTER_BOUND('',#98,.T.);
#64=CYLINDRICAL_SURFACE('',#99,4.1);
#65=SURFACE_STYLE_USAGE(.BOTH.,#100);
#66=FACE_BOUND('',#101,.T.);
#67=FACE_OUTER_BOUND('',#102,.T.);
#68=PLANE('',#103);
#69=SURFACE_STYLE_USAGE(.BOTH.,#104);
#70=FACE_OUTER_BOUND('',#105,.T.);
#71=FACE_OUTER_BOUND('',#106,.T.);
#72=CYLINDRICAL_SURFACE('',#107,11.0);
#73=SURFACE_STYLE_USAGE(.BOTH.,#108);
#74=FACE_BOUND('',#109,.T.);
#75=FACE_OUTER_BOUND('',#110,.T.);
#76=PLANE('',#111);
#77=SURFACE_STYLE_USAGE(.BOTH.,#112);
#78=FACE_OUTER_BOUND('',#113,.T.);
#79=FACE_OUTER_BOUND('',#114,.T.);
#80=CYLINDRICAL_SURFACE('',#115,6.04);
#81=SURFACE_STYLE_USAGE(.BOTH.,#116);
#82=FACE_OUTER_BOUND('',#117,.T.);
#83=FACE_BOUND('',#118,.T.);
#84=CONICAL_SURFACE('',#119,707.106781186547,0.785398163397448);
#85=SURFACE_STYLE_USAGE(.BOTH.,#120);
#86=FACE_BOUND('',#121,.T.);
#87=FACE_OUTER_BOUND('',#122,.T.);
#88=CONICAL_SURFACE('',#123,11.0,0.785398163397448);
#89=PRODUCT_CONTEXT('',#17,'mechanical');
#90=PRODUCT_DEFINITION_FORMATION_WITH_SPECIFIED_SOURCE(' ','NONE',#44,.NOT_KNOWN.);
#91=CLOSED_SHELL('',(#31,#43,#41,#33,#39,#35,#37));
#92=CARTESIAN_POINT('',(0.0,0.0,0.0));
#93=DIRECTION('',(0.0,0.0,1.0));
#94=DIRECTION('',(1.0,0.0,0.0));
#95= (NAMED_UNIT(#53)LENGTH_UNIT()SI_UNIT(.MILLI.,.METRE.));
#96=SURFACE_SIDE_STYLE('',(#125));
#97=EDGE_LOOP('',(#126));
#98=EDGE_LOOP('',(#127));
#99=AXIS2_PLACEMENT_3D('',#128,#129,#130);
#100=SURFACE_SIDE_STYLE('',(#131));
#101=EDGE_LOOP('',(#132));
#102=EDGE_LOOP('',(#133));
#103=AXIS2_PLACEMENT_3D('',#134,#135,#136);
#104=SURFACE_SIDE_STYLE('',(#137));
#105=EDGE_LOOP('',(#138));
#106=EDGE_LOOP('',(#139));
#107=AXIS2_PLACEMENT_3D('',#140,#141,#142);
#108=SURFACE_SIDE_STYLE('',(#143));
#109=EDGE_LOOP('',(#144));
#110=EDGE_LOOP('',(#145));
#111=AXIS2_PLACEMENT_3D('',#146,#147,#148);
#112=SURFACE_SIDE_STYLE('',(#149));
#113=EDGE_LOOP('',(#150));
#114=EDGE_LOOP('',(#151));
#115=AXIS2_PLACEMENT_3D('',#152,#153,#154);
#116=SURFACE_SIDE_STYLE('',(#155));
#117=EDGE_LOOP('',(#156));
#118=EDGE_LOOP('',(#157));
#119=AXIS2_PLACEMENT_3D('',#158,#159,#160);
#120=SURFACE_SIDE_STYLE('',(#161));
#121=EDGE_LOOP('',(#162));
#122=EDGE_LOOP('',(#163));
#123=AXIS2_PLACEMENT_3D('',#164,#165,#166);
#125=SURFACE_STYLE_FILL_AREA(#167);
#126=ORIENTED_EDGE('',*,*,#168,.T.);
#127=ORIENTED_EDGE('',*,*,#169,.F.);
#128=CARTESIAN_POINT('',(0.0,59.2600000000716,-5.55111512312578E-014));
#129=DIRECTION('',(0.0,1.0,0.0));
#130=DIRECTION('',(0.0,0.0,1.0));
#131=SURFACE_STYLE_FILL_AREA(#170);
#132=ORIENTED_EDGE('',*,*,#168,.F.);
#133=ORIENTED_EDGE('',*,*,#171,.F.);
#134=CARTESIAN_POINT('',(0.0,59.5,-5.55111512312578E-014));
#135=DIRECTION('',(0.0,-1.0,0.0));
#136=DIRECTION('',(0.0,0.0,-1.0));
#137=SURFACE_STYLE_FILL_AREA(#172);
#138=ORIENTED_EDGE('',*,*,#173,.T.);
#139=ORIENTED_EDGE('',*,*,#174,.T.);
#140=CARTESIAN_POINT('',(0.0,78.5,-5.55111512312578E-014));
#141=DIRECTION('',(-0.0,1.0,0.0));
#142=DIRECTION('',(1.0,0.0,0.0));
#143=SURFACE_STYLE_FILL_AREA(#175);
#144=ORIENTED_EDGE('',*,*,#176,.T.);
#145=ORIENTED_EDGE('',*,*,#174,.F.);
#146=CARTESIAN_POINT('',(0.0,78.5,-5.55111512312578E-014));
#147=DIRECTION('',(0.0,-1.0,0.0));
#148=DIRECTION('',(0.0,0.0,-1.0));
#149=SURFACE_STYLE_FILL_AREA(#177);
#150=ORIENTED_EDGE('',*,*,#176,.F.);
#151=ORIENTED_EDGE('',*,*,#171,.T.);
#152=CARTESIAN_POINT('',(0.0,59.5,-5.55111512312578E-014));
#153=DIRECTION('',(-0.0,1.0,0.0));
#154=DIRECTION('',(1.0,0.0,0.0));
#155=SURFACE_STYLE_FILL_AREA(#178);
#156=ORIENTED_EDGE('',*,*,#179,.T.);
#157=ORIENTED_EDGE('',*,*,#169,.T.);
#158=CARTESIAN_POINT('',(0.0,781.706781186548,-5.55111512312578E-014));
#159=DIRECTION('',(-0.0,1.0,-0.0));
#160=DIRECTION('',(0.0,0.0,1.0));
#161=SURFACE_STYLE_FILL_AREA(#180);
#162=ORIENTED_EDGE('',*,*,#179,.F.);
#163=ORIENTED_EDGE('',*,*,#173,.F.);
#164=CARTESIAN_POINT('',(0.0,80.5,-5.55111512312578E-014));
#165=DIRECTION('',(0.0,-1.0,-0.0));
#166=DIRECTION('',(0.0,0.0,-1.0));
#167=FILL_AREA_STYLE('',(#181));
#168=EDGE_CURVE('',#182,#182,#183,.T.);
#169=EDGE_CURVE('',#184,#184,#185,.F.);
#170=FILL_AREA_STYLE('',(#186));
#171=EDGE_CURVE('',#187,#187,#188,.T.);
#172=FILL_AREA_STYLE('',(#189));
#173=EDGE_CURVE('',#190,#190,#191,.F.);
#174=EDGE_CURVE('',#192,#192,#193,.T.);
#175=FILL_AREA_STYLE('',(#194));
#176=EDGE_CURVE('',#195,#195,#196,.F.);
#177=FILL_AREA_STYLE('',(#197));
#178=FILL_AREA_STYLE('',(#198));
#179=EDGE_CURVE('',#199,#199,#200,.T.);
#180=FILL_AREA_STYLE('',(#201));
#181=FILL_AREA_STYLE_COLOUR('',#202);
#182=VERTEX_POINT('',#203);
#183=CIRCLE('',#204,4.1);
#184=VERTEX_POINT('',#205);
#185=CIRCLE('',#206,4.1);
#186=FILL_AREA_STYLE_COLOUR('',#207);
#187=VERTEX_POINT('',#208);
#188=CIRCLE('',#209,6.04);
#189=FILL_AREA_STYLE_COLOUR('',#210);
#190=VERTEX_POINT('',#211);
#191=CIRCLE('',#212,11.0);
#192=VERTEX_POINT('',#213);
#193=CIRCLE('',#214,11.0);
#194=FILL_AREA_STYLE_COLOUR('',#215);
#195=VERTEX_POINT('',#216);
#196=CIRCLE('',#217,6.04);
#197=FILL_AREA_STYLE_COLOUR('',#218);
#198=FILL_AREA_STYLE_COLOUR('',#219);
#199=VERTEX_POINT('',#220);
#200=CIRCLE('',#221,8.45);
#201=FILL_AREA_STYLE_COLOUR('',#222);
#202=COLOUR_RGB('',0.752941191196442,0.0,0.0);
#203=CARTESIAN_POINT('',(0.0,59.5,-4.10000000000006));
#204=AXIS2_PLACEMENT_3D('',#223,#224,#225);
#205=CARTESIAN_POINT('',(-1.00421037530083E-015,78.7,4.09999999999995));
#206=AXIS2_PLACEMENT_3D('',#226,#227,#228);
#207=COLOUR_RGB('',0.752941191196442,0.0,0.0);
#208=CARTESIAN_POINT('',(6.04,59.5,-5.55111512312578E-014));
#209=AXIS2_PLACEMENT_3D('',#229,#230,#231);
#210=COLOUR_RGB('',0.752941191196442,0.0,0.0);
#211=CARTESIAN_POINT('',(-2.69422295812418E-015,80.5,10.9999999999999));
#212=AXIS2_PLACEMENT_3D('',#232,#233,#234);
#213=CARTESIAN_POINT('',(11.0,78.5,-5.55111512312578E-014));
#214=AXIS2_PLACEMENT_3D('',#235,#236,#237);
#215=COLOUR_RGB('',0.752941191196442,0.0,0.0);
#216=CARTESIAN_POINT('',(-1.47937333337E-015,78.5,-6.04000000000006));
#217=AXIS2_PLACEMENT_3D('',#238,#239,#240);
#218=COLOUR_RGB('',0.752941191196442,0.0,0.0);
#219=COLOUR_RGB('',0.752941191196442,0.0,0.0);
#220=CARTESIAN_POINT('',(0.0,83.05,8.44999999999994));
#221=AXIS2_PLACEMENT_3D('',#241,#242,#243);
#222=COLOUR_RGB('',0.752941191196442,0.0,0.0);
#223=CARTESIAN_POINT('',(0.0,59.5,-5.55111512312578E-014));
#224=DIRECTION('',(0.0,-1.0,0.0));
#225=DIRECTION('',(0.0,0.0,-1.0));
#226=CARTESIAN_POINT('',(0.0,78.7,-5.55111512312578E-014));
#227=DIRECTION('',(0.0,1.0,0.0));
#228=DIRECTION('',(0.0,0.0,1.0));
#229=CARTESIAN_POINT('',(0.0,59.5,-5.55111512312578E-014));
#230=DIRECTION('',(-0.0,1.0,0.0));
#231=DIRECTION('',(1.0,0.0,0.0));
#232=CARTESIAN_POINT('',(0.0,80.5,-5.55111512312578E-014));
#233=DIRECTION('',(0.0,1.0,0.0));
#234=DIRECTION('',(0.0,0.0,1.0));
#235=CARTESIAN_POINT('',(0.0,78.5,-5.55111512312578E-014));
#236=DIRECTION('',(-0.0,1.0,0.0));
#237=DIRECTION('',(1.0,0.0,0.0));
#238=CARTESIAN_POINT('',(0.0,78.5,-5.55111512312578E-014));
#239=DIRECTION('',(0.0,-1.0,0.0));
#240=DIRECTION('',(0.0,0.0,-1.0));
#241=CARTESIAN_POINT('',(0.0,83.05,-5.55111512312578E-014));
#242=DIRECTION('',(0.0,1.0,0.0));
#243=DIRECTION('',(0.0,0.0,1.0));
#244=PRESENTATION_LAYER_ASSIGNMENT('6','',(#46));
ENDSEC;
END-ISO-10303-21;
