ISO-10303-21;
HEADER;
/* Generated by software containing ST-Developer
 * from STEP Tools, Inc. (www.steptools.com) 
 */

FILE_DESCRIPTION(
/* description */ (''),
/* implementation_level */ '2;1');

FILE_NAME(
/* name */ 
'C:\\Users\\Piigle\\Documents\\Inventor\\ironman\\roue entrainement.st
p',
/* time_stamp */ '2018-07-11T17:25:57+02:00',
/* author */ ('Piigle'),
/* organization */ (''),
/* preprocessor_version */ 'ST-DEVELOPER v16.5',
/* originating_system */ 'Autodesk Inventor 2017',
/* authorisation */ '');

FILE_SCHEMA (('AUTOMOTIVE_DESIGN { 1 0 10303 214 3 1 1 }'));
ENDSEC;

DATA;
#10=MECHANICAL_DESIGN_GEOMETRIC_PRESENTATION_REPRESENTATION('',(#13),#432);
#11=SHAPE_REPRESENTATION_RELATIONSHIP('SRR','None',#441,#12);
#12=ADVANCED_BREP_SHAPE_REPRESENTATION('',(#14),#431);
#13=STYLED_ITEM('',(#450),#14);
#14=MANIFOLD_SOLID_BREP('Solide1',#207);
#15=TOROIDAL_SURFACE('',#233,40.1,1.3);
#16=B_SPLINE_CURVE_WITH_KNOTS('',3,(#339,#340,#341,#342,#343,#344,#345,
#346,#347,#348,#349,#350,#351,#352,#353,#354,#355,#356,#357,#358,#359,#360,
#361,#362,#363,#364,#365,#366,#367,#368,#369,#370,#371,#372),
 .UNSPECIFIED.,.T.,.F.,(4,2,2,2,2,2,2,2,2,2,2,2,2,2,2,2,4),(0.,0.0466491557893197,
0.0932983115786395,0.139932083857303,0.186565856135966,0.233199628414629,
0.279833400693292,0.326482556482611,0.373131712271931,0.419780868061251,
0.466430023850571,0.513063796129234,0.559697568407897,0.60633134068656,
0.652965112965223,0.699614268754543,0.746263424543862),.UNSPECIFIED.);
#17=B_SPLINE_CURVE_WITH_KNOTS('',3,(#379,#380,#381,#382,#383,#384,#385,
#386,#387,#388,#389,#390,#391,#392,#393,#394,#395,#396),.UNSPECIFIED.,.F.,
 .F.,(4,2,2,2,2,2,2,2,4),(0.185509507969156,0.231886595019392,0.278263682069628,
0.32464134900397,0.371019015938311,0.417396682872653,0.463774349806995,
0.510151436857231,0.556528523907467),.UNSPECIFIED.);
#18=B_SPLINE_CURVE_WITH_KNOTS('',3,(#397,#398,#399,#400,#401,#402,#403,
#404,#405,#406,#407,#408,#409,#410,#411,#412,#413,#414,#415),
 .UNSPECIFIED.,.F.,.F.,(4,2,2,2,3,2,2,2,4),(0.556528523907467,0.602905610957703,
0.64928269800794,0.695660364942281,0.742038031876623,0.788415698810964,
0.834793365745306,0.881170452795542,0.927547539845778),.UNSPECIFIED.);
#19=CYLINDRICAL_SURFACE('',#214,40.);
#20=CYLINDRICAL_SURFACE('',#221,40.);
#21=CYLINDRICAL_SURFACE('',#226,4.);
#22=CYLINDRICAL_SURFACE('',#230,1.2295);
#23=CYLINDRICAL_SURFACE('',#232,8.9);
#24=CYLINDRICAL_SURFACE('',#234,5.75);
#25=CYLINDRICAL_SURFACE('',#236,3.9);
#26=PLANE('',#212);
#27=PLANE('',#219);
#28=PLANE('',#228);
#29=PLANE('',#231);
#30=PLANE('',#239);
#31=PLANE('',#240);
#32=FACE_BOUND('',#67,.T.);
#33=FACE_BOUND('',#69,.T.);
#34=FACE_BOUND('',#71,.T.);
#35=FACE_BOUND('',#73,.T.);
#36=FACE_BOUND('',#75,.T.);
#37=FACE_BOUND('',#77,.T.);
#38=FACE_BOUND('',#79,.T.);
#39=FACE_BOUND('',#81,.T.);
#40=FACE_BOUND('',#82,.T.);
#41=FACE_BOUND('',#84,.T.);
#42=FACE_BOUND('',#86,.T.);
#43=FACE_BOUND('',#89,.T.);
#44=FACE_BOUND('',#90,.T.);
#45=FACE_BOUND('',#92,.T.);
#46=FACE_BOUND('',#94,.T.);
#47=FACE_BOUND('',#96,.T.);
#48=FACE_BOUND('',#98,.T.);
#49=FACE_OUTER_BOUND('',#66,.T.);
#50=FACE_OUTER_BOUND('',#68,.T.);
#51=FACE_OUTER_BOUND('',#70,.T.);
#52=FACE_OUTER_BOUND('',#72,.T.);
#53=FACE_OUTER_BOUND('',#74,.T.);
#54=FACE_OUTER_BOUND('',#76,.T.);
#55=FACE_OUTER_BOUND('',#78,.T.);
#56=FACE_OUTER_BOUND('',#80,.T.);
#57=FACE_OUTER_BOUND('',#83,.T.);
#58=FACE_OUTER_BOUND('',#85,.T.);
#59=FACE_OUTER_BOUND('',#87,.T.);
#60=FACE_OUTER_BOUND('',#88,.T.);
#61=FACE_OUTER_BOUND('',#91,.T.);
#62=FACE_OUTER_BOUND('',#93,.T.);
#63=FACE_OUTER_BOUND('',#95,.T.);
#64=FACE_OUTER_BOUND('',#97,.T.);
#65=FACE_OUTER_BOUND('',#99,.T.);
#66=EDGE_LOOP('',(#151));
#67=EDGE_LOOP('',(#152));
#68=EDGE_LOOP('',(#153));
#69=EDGE_LOOP('',(#154));
#70=EDGE_LOOP('',(#155));
#71=EDGE_LOOP('',(#156));
#72=EDGE_LOOP('',(#157));
#73=EDGE_LOOP('',(#158));
#74=EDGE_LOOP('',(#159));
#75=EDGE_LOOP('',(#160));
#76=EDGE_LOOP('',(#161));
#77=EDGE_LOOP('',(#162));
#78=EDGE_LOOP('',(#163));
#79=EDGE_LOOP('',(#164));
#80=EDGE_LOOP('',(#165));
#81=EDGE_LOOP('',(#166));
#82=EDGE_LOOP('',(#167));
#83=EDGE_LOOP('',(#168));
#84=EDGE_LOOP('',(#169));
#85=EDGE_LOOP('',(#170,#171));
#86=EDGE_LOOP('',(#172));
#87=EDGE_LOOP('',(#173));
#88=EDGE_LOOP('',(#174));
#89=EDGE_LOOP('',(#175,#176));
#90=EDGE_LOOP('',(#177));
#91=EDGE_LOOP('',(#178));
#92=EDGE_LOOP('',(#179));
#93=EDGE_LOOP('',(#180));
#94=EDGE_LOOP('',(#181));
#95=EDGE_LOOP('',(#182));
#96=EDGE_LOOP('',(#183));
#97=EDGE_LOOP('',(#184));
#98=EDGE_LOOP('',(#185));
#99=EDGE_LOOP('',(#186));
#100=CIRCLE('',#210,39.);
#101=CIRCLE('',#211,40.);
#102=CIRCLE('',#213,5.75);
#103=CIRCLE('',#215,40.);
#104=CIRCLE('',#217,39.);
#105=CIRCLE('',#218,40.);
#106=CIRCLE('',#220,8.9);
#107=CIRCLE('',#222,40.);
#108=CIRCLE('',#224,4.);
#109=CIRCLE('',#225,5.);
#110=CIRCLE('',#227,4.);
#111=CIRCLE('',#229,8.9);
#112=CIRCLE('',#235,5.75);
#113=CIRCLE('',#237,3.9);
#114=CIRCLE('',#238,3.9);
#115=VERTEX_POINT('',#309);
#116=VERTEX_POINT('',#311);
#117=VERTEX_POINT('',#314);
#118=VERTEX_POINT('',#317);
#119=VERTEX_POINT('',#320);
#120=VERTEX_POINT('',#322);
#121=VERTEX_POINT('',#325);
#122=VERTEX_POINT('',#328);
#123=VERTEX_POINT('',#331);
#124=VERTEX_POINT('',#333);
#125=VERTEX_POINT('',#336);
#126=VERTEX_POINT('',#338);
#127=VERTEX_POINT('',#374);
#128=VERTEX_POINT('',#377);
#129=VERTEX_POINT('',#378);
#130=VERTEX_POINT('',#420);
#131=VERTEX_POINT('',#423);
#132=VERTEX_POINT('',#425);
#133=EDGE_CURVE('',#115,#115,#100,.T.);
#134=EDGE_CURVE('',#116,#116,#101,.T.);
#135=EDGE_CURVE('',#117,#117,#102,.T.);
#136=EDGE_CURVE('',#118,#118,#103,.T.);
#137=EDGE_CURVE('',#119,#119,#104,.T.);
#138=EDGE_CURVE('',#120,#120,#105,.T.);
#139=EDGE_CURVE('',#121,#121,#106,.T.);
#140=EDGE_CURVE('',#122,#122,#107,.T.);
#141=EDGE_CURVE('',#123,#123,#108,.T.);
#142=EDGE_CURVE('',#124,#124,#109,.T.);
#143=EDGE_CURVE('',#125,#125,#110,.T.);
#144=EDGE_CURVE('',#126,#126,#16,.T.);
#145=EDGE_CURVE('',#127,#127,#111,.T.);
#146=EDGE_CURVE('',#128,#129,#17,.T.);
#147=EDGE_CURVE('',#129,#128,#18,.T.);
#148=EDGE_CURVE('',#130,#130,#112,.T.);
#149=EDGE_CURVE('',#131,#131,#113,.T.);
#150=EDGE_CURVE('',#132,#132,#114,.T.);
#151=ORIENTED_EDGE('',*,*,#133,.T.);
#152=ORIENTED_EDGE('',*,*,#134,.T.);
#153=ORIENTED_EDGE('',*,*,#133,.F.);
#154=ORIENTED_EDGE('',*,*,#135,.F.);
#155=ORIENTED_EDGE('',*,*,#136,.T.);
#156=ORIENTED_EDGE('',*,*,#134,.F.);
#157=ORIENTED_EDGE('',*,*,#137,.T.);
#158=ORIENTED_EDGE('',*,*,#138,.T.);
#159=ORIENTED_EDGE('',*,*,#137,.F.);
#160=ORIENTED_EDGE('',*,*,#139,.F.);
#161=ORIENTED_EDGE('',*,*,#140,.T.);
#162=ORIENTED_EDGE('',*,*,#138,.F.);
#163=ORIENTED_EDGE('',*,*,#141,.T.);
#164=ORIENTED_EDGE('',*,*,#142,.T.);
#165=ORIENTED_EDGE('',*,*,#143,.T.);
#166=ORIENTED_EDGE('',*,*,#144,.T.);
#167=ORIENTED_EDGE('',*,*,#141,.F.);
#168=ORIENTED_EDGE('',*,*,#145,.T.);
#169=ORIENTED_EDGE('',*,*,#142,.F.);
#170=ORIENTED_EDGE('',*,*,#146,.F.);
#171=ORIENTED_EDGE('',*,*,#147,.F.);
#172=ORIENTED_EDGE('',*,*,#144,.F.);
#173=ORIENTED_EDGE('',*,*,#143,.F.);
#174=ORIENTED_EDGE('',*,*,#139,.T.);
#175=ORIENTED_EDGE('',*,*,#146,.T.);
#176=ORIENTED_EDGE('',*,*,#147,.T.);
#177=ORIENTED_EDGE('',*,*,#145,.F.);
#178=ORIENTED_EDGE('',*,*,#140,.F.);
#179=ORIENTED_EDGE('',*,*,#136,.F.);
#180=ORIENTED_EDGE('',*,*,#135,.T.);
#181=ORIENTED_EDGE('',*,*,#148,.F.);
#182=ORIENTED_EDGE('',*,*,#149,.T.);
#183=ORIENTED_EDGE('',*,*,#150,.F.);
#184=ORIENTED_EDGE('',*,*,#148,.T.);
#185=ORIENTED_EDGE('',*,*,#149,.F.);
#186=ORIENTED_EDGE('',*,*,#150,.T.);
#187=CONICAL_SURFACE('',#209,39.5,45.);
#188=CONICAL_SURFACE('',#216,39.5,45.);
#189=CONICAL_SURFACE('',#223,4.5,45.);
#190=ADVANCED_FACE('',(#49,#32),#187,.T.);
#191=ADVANCED_FACE('',(#50,#33),#26,.T.);
#192=ADVANCED_FACE('',(#51,#34),#19,.T.);
#193=ADVANCED_FACE('',(#52,#35),#188,.T.);
#194=ADVANCED_FACE('',(#53,#36),#27,.F.);
#195=ADVANCED_FACE('',(#54,#37),#20,.T.);
#196=ADVANCED_FACE('',(#55,#38),#189,.F.);
#197=ADVANCED_FACE('',(#56,#39,#40),#21,.F.);
#198=ADVANCED_FACE('',(#57,#41),#28,.F.);
#199=ADVANCED_FACE('',(#58,#42),#22,.F.);
#200=ADVANCED_FACE('',(#59),#29,.F.);
#201=ADVANCED_FACE('',(#60,#43,#44),#23,.T.);
#202=ADVANCED_FACE('',(#61,#45),#15,.F.);
#203=ADVANCED_FACE('',(#62,#46),#24,.T.);
#204=ADVANCED_FACE('',(#63,#47),#25,.T.);
#205=ADVANCED_FACE('',(#64,#48),#30,.T.);
#206=ADVANCED_FACE('',(#65),#31,.T.);
#207=CLOSED_SHELL('',(#190,#191,#192,#193,#194,#195,#196,#197,#198,#199,
#200,#201,#202,#203,#204,#205,#206));
#208=AXIS2_PLACEMENT_3D('placement',#307,#241,#242);
#209=AXIS2_PLACEMENT_3D('',#308,#243,#244);
#210=AXIS2_PLACEMENT_3D('',#310,#245,#246);
#211=AXIS2_PLACEMENT_3D('',#312,#247,#248);
#212=AXIS2_PLACEMENT_3D('',#313,#249,#250);
#213=AXIS2_PLACEMENT_3D('',#315,#251,#252);
#214=AXIS2_PLACEMENT_3D('',#316,#253,#254);
#215=AXIS2_PLACEMENT_3D('',#318,#255,#256);
#216=AXIS2_PLACEMENT_3D('',#319,#257,#258);
#217=AXIS2_PLACEMENT_3D('',#321,#259,#260);
#218=AXIS2_PLACEMENT_3D('',#323,#261,#262);
#219=AXIS2_PLACEMENT_3D('',#324,#263,#264);
#220=AXIS2_PLACEMENT_3D('',#326,#265,#266);
#221=AXIS2_PLACEMENT_3D('',#327,#267,#268);
#222=AXIS2_PLACEMENT_3D('',#329,#269,#270);
#223=AXIS2_PLACEMENT_3D('',#330,#271,#272);
#224=AXIS2_PLACEMENT_3D('',#332,#273,#274);
#225=AXIS2_PLACEMENT_3D('',#334,#275,#276);
#226=AXIS2_PLACEMENT_3D('',#335,#277,#278);
#227=AXIS2_PLACEMENT_3D('',#337,#279,#280);
#228=AXIS2_PLACEMENT_3D('',#373,#281,#282);
#229=AXIS2_PLACEMENT_3D('',#375,#283,#284);
#230=AXIS2_PLACEMENT_3D('',#376,#285,#286);
#231=AXIS2_PLACEMENT_3D('',#416,#287,#288);
#232=AXIS2_PLACEMENT_3D('',#417,#289,#290);
#233=AXIS2_PLACEMENT_3D('',#418,#291,#292);
#234=AXIS2_PLACEMENT_3D('',#419,#293,#294);
#235=AXIS2_PLACEMENT_3D('',#421,#295,#296);
#236=AXIS2_PLACEMENT_3D('',#422,#297,#298);
#237=AXIS2_PLACEMENT_3D('',#424,#299,#300);
#238=AXIS2_PLACEMENT_3D('',#426,#301,#302);
#239=AXIS2_PLACEMENT_3D('',#427,#303,#304);
#240=AXIS2_PLACEMENT_3D('',#428,#305,#306);
#241=DIRECTION('axis',(0.,0.,1.));
#242=DIRECTION('refdir',(1.,0.,0.));
#243=DIRECTION('center_axis',(0.,-1.,0.));
#244=DIRECTION('ref_axis',(-1.,0.,0.));
#245=DIRECTION('center_axis',(0.,-1.,0.));
#246=DIRECTION('ref_axis',(-1.,0.,0.));
#247=DIRECTION('center_axis',(0.,1.,0.));
#248=DIRECTION('ref_axis',(-1.,0.,0.));
#249=DIRECTION('center_axis',(0.,1.,0.));
#250=DIRECTION('ref_axis',(0.,0.,1.));
#251=DIRECTION('center_axis',(0.,1.,0.));
#252=DIRECTION('ref_axis',(-1.,0.,0.));
#253=DIRECTION('center_axis',(0.,1.,0.));
#254=DIRECTION('ref_axis',(1.,0.,0.));
#255=DIRECTION('center_axis',(0.,1.,0.));
#256=DIRECTION('ref_axis',(1.,0.,0.));
#257=DIRECTION('center_axis',(0.,1.,0.));
#258=DIRECTION('ref_axis',(-1.,0.,0.));
#259=DIRECTION('center_axis',(0.,1.,0.));
#260=DIRECTION('ref_axis',(-1.,0.,0.));
#261=DIRECTION('center_axis',(0.,-1.,0.));
#262=DIRECTION('ref_axis',(-1.,0.,0.));
#263=DIRECTION('center_axis',(0.,1.,0.));
#264=DIRECTION('ref_axis',(0.,0.,1.));
#265=DIRECTION('center_axis',(0.,-1.,0.));
#266=DIRECTION('ref_axis',(-1.,0.,0.));
#267=DIRECTION('center_axis',(0.,1.,0.));
#268=DIRECTION('ref_axis',(1.,0.,0.));
#269=DIRECTION('center_axis',(0.,-1.,0.));
#270=DIRECTION('ref_axis',(1.,0.,0.));
#271=DIRECTION('center_axis',(0.,-1.,0.));
#272=DIRECTION('ref_axis',(-1.,0.,0.));
#273=DIRECTION('center_axis',(0.,1.,0.));
#274=DIRECTION('ref_axis',(-1.,0.,0.));
#275=DIRECTION('center_axis',(0.,-1.,0.));
#276=DIRECTION('ref_axis',(-1.,0.,0.));
#277=DIRECTION('center_axis',(0.,1.,0.));
#278=DIRECTION('ref_axis',(-1.,0.,0.));
#279=DIRECTION('center_axis',(0.,1.,0.));
#280=DIRECTION('ref_axis',(-1.,0.,0.));
#281=DIRECTION('center_axis',(0.,1.,0.));
#282=DIRECTION('ref_axis',(0.,0.,1.));
#283=DIRECTION('center_axis',(0.,-1.,0.));
#284=DIRECTION('ref_axis',(-1.,0.,0.));
#285=DIRECTION('center_axis',(0.,0.,1.));
#286=DIRECTION('ref_axis',(1.,0.,0.));
#287=DIRECTION('center_axis',(0.,1.,0.));
#288=DIRECTION('ref_axis',(0.,0.,1.));
#289=DIRECTION('center_axis',(0.,1.,0.));
#290=DIRECTION('ref_axis',(-1.,0.,0.));
#291=DIRECTION('center_axis',(0.,-1.,0.));
#292=DIRECTION('ref_axis',(0.,0.,-1.));
#293=DIRECTION('center_axis',(0.,-1.,0.));
#294=DIRECTION('ref_axis',(-1.,0.,0.));
#295=DIRECTION('center_axis',(0.,1.,0.));
#296=DIRECTION('ref_axis',(-1.,0.,0.));
#297=DIRECTION('center_axis',(0.,-1.,0.));
#298=DIRECTION('ref_axis',(-1.,0.,0.));
#299=DIRECTION('center_axis',(0.,1.,0.));
#300=DIRECTION('ref_axis',(-1.,0.,0.));
#301=DIRECTION('center_axis',(0.,1.,0.));
#302=DIRECTION('ref_axis',(-1.,0.,0.));
#303=DIRECTION('center_axis',(0.,1.,0.));
#304=DIRECTION('ref_axis',(0.,0.,1.));
#305=DIRECTION('center_axis',(0.,1.,0.));
#306=DIRECTION('ref_axis',(0.,0.,1.));
#307=CARTESIAN_POINT('',(0.,0.,0.));
#308=CARTESIAN_POINT('Origin',(0.,23.5,0.));
#309=CARTESIAN_POINT('',(39.,24.,4.77612251667468E-15));
#310=CARTESIAN_POINT('Origin',(0.,24.,0.));
#311=CARTESIAN_POINT('',(40.,23.,-4.89858719658941E-15));
#312=CARTESIAN_POINT('Origin',(0.,23.,0.));
#313=CARTESIAN_POINT('Origin',(-1.88851296588266E-15,24.,0.));
#314=CARTESIAN_POINT('',(5.75,24.,-7.04171909509728E-16));
#315=CARTESIAN_POINT('Origin',(0.,24.,0.));
#316=CARTESIAN_POINT('Origin',(0.,0.,0.));
#317=CARTESIAN_POINT('',(-40.,22.2961481396816,4.89858719658941E-15));
#318=CARTESIAN_POINT('Origin',(0.,22.2961481396816,0.));
#319=CARTESIAN_POINT('Origin',(0.,17.2,0.));
#320=CARTESIAN_POINT('',(39.,16.7,-4.77612251667468E-15));
#321=CARTESIAN_POINT('Origin',(0.,16.7,0.));
#322=CARTESIAN_POINT('',(40.,17.7,4.89858719658941E-15));
#323=CARTESIAN_POINT('Origin',(0.,17.7,0.));
#324=CARTESIAN_POINT('Origin',(-1.88851296588266E-15,16.7,0.));
#325=CARTESIAN_POINT('',(8.9,16.7,1.08993565124114E-15));
#326=CARTESIAN_POINT('Origin',(0.,16.7,0.));
#327=CARTESIAN_POINT('Origin',(0.,0.,0.));
#328=CARTESIAN_POINT('',(-40.,19.7038518603184,-4.89858719658941E-15));
#329=CARTESIAN_POINT('Origin',(0.,19.7038518603184,0.));
#330=CARTESIAN_POINT('Origin',(0.,0.5,0.));
#331=CARTESIAN_POINT('',(4.,1.,-4.89858719658941E-16));
#332=CARTESIAN_POINT('Origin',(0.,1.,0.));
#333=CARTESIAN_POINT('',(5.,0.,6.12323399573677E-16));
#334=CARTESIAN_POINT('Origin',(0.,0.,0.));
#335=CARTESIAN_POINT('Origin',(0.,0.,0.));
#336=CARTESIAN_POINT('',(4.,15.,4.89858719658941E-16));
#337=CARTESIAN_POINT('Origin',(0.,15.,0.));
#338=CARTESIAN_POINT('',(1.2295,3.,3.80635386557792));
#339=CARTESIAN_POINT('Ctrl Pts',(1.2295,3.,3.80635386557792));
#340=CARTESIAN_POINT('Ctrl Pts',(1.2295,3.1554971859644,3.80635386557792));
#341=CARTESIAN_POINT('Ctrl Pts',(1.19821677337059,3.32061119789758,3.81688064637567));
#342=CARTESIAN_POINT('Ctrl Pts',(1.07244387392202,3.62320087282262,3.85411017781638));
#343=CARTESIAN_POINT('Ctrl Pts',(0.978002808890236,3.76077276604749,3.88019234803731));
#344=CARTESIAN_POINT('Ctrl Pts',(0.760808584066294,3.97796699087143,3.92855498691156));
#345=CARTESIAN_POINT('Ctrl Pts',(0.623222196869412,4.07243575849563,3.95408844428056));
#346=CARTESIAN_POINT('Ctrl Pts',(0.320579613643526,4.19822915347895,3.99004386469268));
#347=CARTESIAN_POINT('Ctrl Pts',(0.155445907595543,4.2295,4.));
#348=CARTESIAN_POINT('Ctrl Pts',(-0.155445907595544,4.2295,4.));
#349=CARTESIAN_POINT('Ctrl Pts',(-0.320579613643527,4.19822915347895,3.99004386469268));
#350=CARTESIAN_POINT('Ctrl Pts',(-0.623222196869412,4.07243575849563,3.95408844428056));
#351=CARTESIAN_POINT('Ctrl Pts',(-0.760808584066294,3.97796699087143,3.92855498691156));
#352=CARTESIAN_POINT('Ctrl Pts',(-0.978002808890236,3.76077276604748,3.88019234803731));
#353=CARTESIAN_POINT('Ctrl Pts',(-1.07244387392202,3.62320087282261,3.85411017781638));
#354=CARTESIAN_POINT('Ctrl Pts',(-1.19821677337059,3.32061119789758,3.81688064637567));
#355=CARTESIAN_POINT('Ctrl Pts',(-1.2295,3.1554971859644,3.80635386557792));
#356=CARTESIAN_POINT('Ctrl Pts',(-1.2295,2.8445028140356,3.80635386557792));
#357=CARTESIAN_POINT('Ctrl Pts',(-1.19821677337059,2.67938880210242,3.81688064637567));
#358=CARTESIAN_POINT('Ctrl Pts',(-1.07244387392202,2.37679912717739,3.85411017781638));
#359=CARTESIAN_POINT('Ctrl Pts',(-0.978002808890236,2.23922723395252,3.88019234803731));
#360=CARTESIAN_POINT('Ctrl Pts',(-0.760808584066294,2.02203300912857,3.92855498691156));
#361=CARTESIAN_POINT('Ctrl Pts',(-0.623222196869412,1.92756424150437,3.95408844428056));
#362=CARTESIAN_POINT('Ctrl Pts',(-0.320579613643526,1.80177084652105,3.99004386469268));
#363=CARTESIAN_POINT('Ctrl Pts',(-0.155445907595543,1.7705,4.));
#364=CARTESIAN_POINT('Ctrl Pts',(0.155445907595544,1.7705,4.));
#365=CARTESIAN_POINT('Ctrl Pts',(0.320579613643526,1.80177084652105,3.99004386469268));
#366=CARTESIAN_POINT('Ctrl Pts',(0.623222196869412,1.92756424150437,3.95408844428056));
#367=CARTESIAN_POINT('Ctrl Pts',(0.760808584066294,2.02203300912857,3.92855498691156));
#368=CARTESIAN_POINT('Ctrl Pts',(0.978002808890236,2.23922723395252,3.88019234803731));
#369=CARTESIAN_POINT('Ctrl Pts',(1.07244387392202,2.37679912717738,3.85411017781638));
#370=CARTESIAN_POINT('Ctrl Pts',(1.19821677337059,2.67938880210242,3.81688064637567));
#371=CARTESIAN_POINT('Ctrl Pts',(1.2295,2.8445028140356,3.80635386557792));
#372=CARTESIAN_POINT('Ctrl Pts',(1.2295,3.,3.80635386557792));
#373=CARTESIAN_POINT('Origin',(1.88851296588266E-15,0.,0.));
#374=CARTESIAN_POINT('',(8.9,0.,1.08993565124114E-15));
#375=CARTESIAN_POINT('Origin',(0.,0.,0.));
#376=CARTESIAN_POINT('Origin',(0.,3.,4.5));
#377=CARTESIAN_POINT('',(0.,1.7705,8.9));
#378=CARTESIAN_POINT('',(0.,4.2295,8.9));
#379=CARTESIAN_POINT('Ctrl Pts',(-3.12250225675825E-16,1.7705,8.9));
#380=CARTESIAN_POINT('Ctrl Pts',(-0.154590290167455,1.7705,8.9));
#381=CARTESIAN_POINT('Ctrl Pts',(-0.319350596196711,1.8014353405571,8.89556133493578));
#382=CARTESIAN_POINT('Ctrl Pts',(-0.622216385343238,1.92697213012041,8.87951817597707));
#383=CARTESIAN_POINT('Ctrl Pts',(-0.760338277867588,2.02156270292987,8.8681391546073));
#384=CARTESIAN_POINT('Ctrl Pts',(-0.978438660589951,2.23966308565223,8.84673185136647));
#385=CARTESIAN_POINT('Ctrl Pts',(-1.07302816421234,2.37778438775145,8.83530506500904));
#386=CARTESIAN_POINT('Ctrl Pts',(-1.19856417338812,2.68064816816667,8.81915239625992));
#387=CARTESIAN_POINT('Ctrl Pts',(-1.2295,2.84540777688553,8.81466560624962));
#388=CARTESIAN_POINT('Ctrl Pts',(-1.2295,3.15459222311447,8.81466560624962));
#389=CARTESIAN_POINT('Ctrl Pts',(-1.19856417338812,3.31935183183333,8.81915239625992));
#390=CARTESIAN_POINT('Ctrl Pts',(-1.07302816421234,3.62221561224855,8.83530506500904));
#391=CARTESIAN_POINT('Ctrl Pts',(-0.978438660589951,3.76033691434777,8.84673185136647));
#392=CARTESIAN_POINT('Ctrl Pts',(-0.760338277867587,3.97843729707013,8.8681391546073));
#393=CARTESIAN_POINT('Ctrl Pts',(-0.622216385343237,4.07302786987959,8.87951817597707));
#394=CARTESIAN_POINT('Ctrl Pts',(-0.31935059619671,4.1985646594429,8.89556133493578));
#395=CARTESIAN_POINT('Ctrl Pts',(-0.154590290167454,4.2295,8.9));
#396=CARTESIAN_POINT('Ctrl Pts',(1.04083408558608E-16,4.2295,8.9));
#397=CARTESIAN_POINT('Ctrl Pts',(1.38777878078145E-16,4.2295,8.9));
#398=CARTESIAN_POINT('Ctrl Pts',(0.154590290167454,4.2295,8.9));
#399=CARTESIAN_POINT('Ctrl Pts',(0.31935059619671,4.1985646594429,8.89556133493578));
#400=CARTESIAN_POINT('Ctrl Pts',(0.622216385343237,4.07302786987959,8.87951817597707));
#401=CARTESIAN_POINT('Ctrl Pts',(0.760338277867587,3.97843729707013,8.8681391546073));
#402=CARTESIAN_POINT('Ctrl Pts',(0.978438660589952,3.76033691434777,8.84673185136647));
#403=CARTESIAN_POINT('Ctrl Pts',(1.07302816421234,3.62221561224855,8.83530506500904));
#404=CARTESIAN_POINT('Ctrl Pts',(1.19856417338812,3.31935183183333,8.81915239625992));
#405=CARTESIAN_POINT('Ctrl Pts',(1.2295,3.15459222311447,8.81466560624962));
#406=CARTESIAN_POINT('Ctrl Pts',(1.2295,3.,8.81466560624962));
#407=CARTESIAN_POINT('Ctrl Pts',(1.2295,2.84540777688553,8.81466560624962));
#408=CARTESIAN_POINT('Ctrl Pts',(1.19856417338812,2.68064816816667,8.81915239625992));
#409=CARTESIAN_POINT('Ctrl Pts',(1.07302816421234,2.37778438775145,8.83530506500904));
#410=CARTESIAN_POINT('Ctrl Pts',(0.978438660589951,2.23966308565223,8.84673185136647));
#411=CARTESIAN_POINT('Ctrl Pts',(0.760338277867587,2.02156270292987,8.8681391546073));
#412=CARTESIAN_POINT('Ctrl Pts',(0.622216385343237,1.92697213012041,8.87951817597707));
#413=CARTESIAN_POINT('Ctrl Pts',(0.31935059619671,1.8014353405571,8.89556133493578));
#414=CARTESIAN_POINT('Ctrl Pts',(0.154590290167454,1.7705,8.9));
#415=CARTESIAN_POINT('Ctrl Pts',(-2.08166817117217E-16,1.7705,8.9));
#416=CARTESIAN_POINT('Origin',(-3.8776625516694E-16,15.,-5.78241158658936E-17));
#417=CARTESIAN_POINT('Origin',(0.,0.,0.));
#418=CARTESIAN_POINT('Origin',(0.,21.,0.));
#419=CARTESIAN_POINT('Origin',(0.,24.2,0.));
#420=CARTESIAN_POINT('',(5.75,24.2,-7.04171909509728E-16));
#421=CARTESIAN_POINT('Origin',(0.,24.2,0.));
#422=CARTESIAN_POINT('Origin',(0.,30.,0.));
#423=CARTESIAN_POINT('',(3.9,24.2,-4.77612251667468E-16));
#424=CARTESIAN_POINT('Origin',(0.,24.2,0.));
#425=CARTESIAN_POINT('',(3.9,30.,-4.77612251667468E-16));
#426=CARTESIAN_POINT('Origin',(0.,30.,0.));
#427=CARTESIAN_POINT('Origin',(-1.88851296588266E-15,24.2,0.));
#428=CARTESIAN_POINT('Origin',(1.88851296588266E-15,30.,0.));
#429=UNCERTAINTY_MEASURE_WITH_UNIT(LENGTH_MEASURE(0.01),#433,
'DISTANCE_ACCURACY_VALUE',
'Maximum model space distance between geometric entities at asserted c
onnectivities');
#430=UNCERTAINTY_MEASURE_WITH_UNIT(LENGTH_MEASURE(1.E-6),#433,
'DISTANCE_ACCURACY_VALUE',
'Maximum model space distance between geometric entities at asserted c
onnectivities');
#431=(
GEOMETRIC_REPRESENTATION_CONTEXT(3)
GLOBAL_UNCERTAINTY_ASSIGNED_CONTEXT((#429))
GLOBAL_UNIT_ASSIGNED_CONTEXT((#433,#436,#434))
REPRESENTATION_CONTEXT('','3D')
);
#432=(
GEOMETRIC_REPRESENTATION_CONTEXT(3)
GLOBAL_UNCERTAINTY_ASSIGNED_CONTEXT((#430))
GLOBAL_UNIT_ASSIGNED_CONTEXT((#433,#436,#434))
REPRESENTATION_CONTEXT('','3D')
);
#433=(
LENGTH_UNIT()
NAMED_UNIT(*)
SI_UNIT(.MILLI.,.METRE.)
);
#434=(
NAMED_UNIT(*)
SI_UNIT($,.STERADIAN.)
SOLID_ANGLE_UNIT()
);
#435=DIMENSIONAL_EXPONENTS(0.,0.,0.,0.,0.,0.,0.);
#436=(
CONVERSION_BASED_UNIT('degree',#438)
NAMED_UNIT(#435)
PLANE_ANGLE_UNIT()
);
#437=(
NAMED_UNIT(*)
PLANE_ANGLE_UNIT()
SI_UNIT($,.RADIAN.)
);
#438=PLANE_ANGLE_MEASURE_WITH_UNIT(PLANE_ANGLE_MEASURE(0.01745329252),#437);
#439=SHAPE_DEFINITION_REPRESENTATION(#440,#441);
#440=PRODUCT_DEFINITION_SHAPE('',$,#443);
#441=SHAPE_REPRESENTATION('',(#208),#431);
#442=PRODUCT_DEFINITION_CONTEXT('part definition',#447,'design');
#443=PRODUCT_DEFINITION('roue entrainement','roue entrainement',#444,#442);
#444=PRODUCT_DEFINITION_FORMATION('',$,#449);
#445=PRODUCT_RELATED_PRODUCT_CATEGORY('roue entrainement',
'roue entrainement',(#449));
#446=APPLICATION_PROTOCOL_DEFINITION('international standard',
'automotive_design',2009,#447);
#447=APPLICATION_CONTEXT(
'Core Data for Automotive Mechanical Design Process');
#448=PRODUCT_CONTEXT('part definition',#447,'mechanical');
#449=PRODUCT('roue entrainement','roue entrainement',$,(#448));
#450=PRESENTATION_STYLE_ASSIGNMENT((#451));
#451=SURFACE_STYLE_USAGE(.BOTH.,#452);
#452=SURFACE_SIDE_STYLE('',(#453));
#453=SURFACE_STYLE_FILL_AREA(#454);
#454=FILL_AREA_STYLE('',(#455));
#455=FILL_AREA_STYLE_COLOUR('',#456);
#456=COLOUR_RGB('',0.956862745098039,0.956862745098039,0.956862745098039);
ENDSEC;
END-ISO-10303-21;
