ISO-10303-21;
HEADER;
FILE_DESCRIPTION(('STEP AP214'),'1');
FILE_NAME('BMR-020a ADAPTATION PIGNON CODEUR.step','2016-02-17T21:06:21',(' '),(' '),'Spatial InterOp 3D',' ',' ');
FILE_SCHEMA(('automotive_design'));
ENDSEC;
DATA;
#1=MECHANICAL_DESIGN_GEOMETRIC_PRESENTATION_REPRESENTATION(' ',(#10,#11,#12,#13,#14,#15,#16,#17,#18,#19,#20,#21,#22,#23),#6);
#2=PRODUCT_DEFINITION_CONTEXT('',#24,'design');
#3=APPLICATION_PROTOCOL_DEFINITION('INTERNATIONAL STANDARD','automotive_design',1994,#24);
#4=PRODUCT_CATEGORY_RELATIONSHIP('NONE','NONE',#25,#26);
#5=SHAPE_DEFINITION_REPRESENTATION(#27,#28);
#6= (GEOMETRIC_REPRESENTATION_CONTEXT(3)GLOBAL_UNCERTAINTY_ASSIGNED_CONTEXT((#31))GLOBAL_UNIT_ASSIGNED_CONTEXT((#33,#34,#35))REPRESENTATION_CONTEXT('NONE','WORKSPACE'));
#10=STYLED_ITEM('',(#37),#38);
#11=STYLED_ITEM('',(#39),#40);
#12=STYLED_ITEM('',(#41),#42);
#13=STYLED_ITEM('',(#43),#44);
#14=STYLED_ITEM('',(#45),#46);
#15=STYLED_ITEM('',(#47),#48);
#16=STYLED_ITEM('',(#49),#50);
#17=STYLED_ITEM('',(#51),#52);
#18=STYLED_ITEM('',(#53),#54);
#19=STYLED_ITEM('',(#55),#56);
#20=STYLED_ITEM('',(#57),#58);
#21=STYLED_ITEM('',(#59),#60);
#22=STYLED_ITEM('',(#61),#62);
#23=STYLED_ITEM('',(#63),#64);
#24=APPLICATION_CONTEXT(' ');
#25=PRODUCT_CATEGORY('part','NONE');
#26=PRODUCT_RELATED_PRODUCT_CATEGORY('detail',' ',(#65));
#27=PRODUCT_DEFINITION_SHAPE('NONE','NONE',#66);
#28=ADVANCED_BREP_SHAPE_REPRESENTATION('ADAPTATION PIGNON CODEUR',(#67,#68),#6);
#31=UNCERTAINTY_MEASURE_WITH_UNIT(LENGTH_MEASURE(0.001),#33,'','');
#33= (CONVERSION_BASED_UNIT('MILLIMETRE',#71)LENGTH_UNIT()NAMED_UNIT(#74));
#34= (NAMED_UNIT(#76)PLANE_ANGLE_UNIT()SI_UNIT($,.RADIAN.));
#35= (NAMED_UNIT(#76)SOLID_ANGLE_UNIT()SI_UNIT($,.STERADIAN.));
#37=PRESENTATION_STYLE_ASSIGNMENT((#82));
#38=ADVANCED_FACE('',(#83,#84,#85,#86,#87),#88,.T.);
#39=PRESENTATION_STYLE_ASSIGNMENT((#89));
#40=ADVANCED_FACE('',(#90,#91),#92,.T.);
#41=PRESENTATION_STYLE_ASSIGNMENT((#93));
#42=ADVANCED_FACE('',(#94,#95,#96),#97,.F.);
#43=PRESENTATION_STYLE_ASSIGNMENT((#98));
#44=ADVANCED_FACE('',(#99,#100),#101,.F.);
#45=PRESENTATION_STYLE_ASSIGNMENT((#102));
#46=ADVANCED_FACE('',(#103,#104),#105,.F.);
#47=PRESENTATION_STYLE_ASSIGNMENT((#106));
#48=ADVANCED_FACE('',(#107,#108),#109,.F.);
#49=PRESENTATION_STYLE_ASSIGNMENT((#110));
#50=ADVANCED_FACE('',(#111,#112,#113,#114,#115),#116,.T.);
#51=PRESENTATION_STYLE_ASSIGNMENT((#117));
#52=ADVANCED_FACE('',(#118,#119),#120,.T.);
#53=PRESENTATION_STYLE_ASSIGNMENT((#121));
#54=ADVANCED_FACE('',(#122,#123),#124,.F.);
#55=PRESENTATION_STYLE_ASSIGNMENT((#125));
#56=ADVANCED_FACE('',(#126,#127),#128,.F.);
#57=PRESENTATION_STYLE_ASSIGNMENT((#129));
#58=ADVANCED_FACE('',(#130,#131,#132),#133,.T.);
#59=PRESENTATION_STYLE_ASSIGNMENT((#134));
#60=ADVANCED_FACE('',(#135,#136),#137,.T.);
#61=PRESENTATION_STYLE_ASSIGNMENT((#138));
#62=ADVANCED_FACE('',(#139,#140),#141,.F.);
#63=PRESENTATION_STYLE_ASSIGNMENT((#142));
#64=ADVANCED_FACE('',(#143,#144),#145,.T.);
#65=PRODUCT('ADAPTATION PIGNON CODEUR','ADAPTATION PIGNON CODEUR','PART-ADAPTATION PIGNON CODEUR-DESC',(#146));
#66=PRODUCT_DEFINITION('NONE','NONE',#147,#2);
#67=MANIFOLD_SOLID_BREP('ADAPTATION PIGNON CODEUR',#148);
#68=AXIS2_PLACEMENT_3D('',#149,#150,#151);
#71=LENGTH_MEASURE_WITH_UNIT(LENGTH_MEASURE(1.0),#152);
#74=DIMENSIONAL_EXPONENTS(1.0,0.0,0.0,0.0,0.0,0.0,0.0);
#76=DIMENSIONAL_EXPONENTS(0.0,0.0,0.0,0.0,0.0,0.0,0.0);
#82=SURFACE_STYLE_USAGE(.BOTH.,#153);
#83=FACE_OUTER_BOUND('',#154,.T.);
#84=FACE_BOUND('',#155,.T.);
#85=FACE_BOUND('',#156,.T.);
#86=FACE_BOUND('',#157,.T.);
#87=FACE_BOUND('',#158,.T.);
#88=PLANE('',#159);
#89=SURFACE_STYLE_USAGE(.BOTH.,#160);
#90=FACE_BOUND('',#161,.T.);
#91=FACE_OUTER_BOUND('',#162,.T.);
#92=CONICAL_SURFACE('',#163,29.95,0.785398163397448);
#93=SURFACE_STYLE_USAGE(.BOTH.,#164);
#94=FACE_OUTER_BOUND('',#165,.T.);
#95=FACE_BOUND('',#166,.T.);
#96=FACE_OUTER_BOUND('',#167,.T.);
#97=CYLINDRICAL_SURFACE('',#168,3.0);
#98=SURFACE_STYLE_USAGE(.BOTH.,#169);
#99=FACE_OUTER_BOUND('',#170,.T.);
#100=FACE_OUTER_BOUND('',#171,.T.);
#101=CYLINDRICAL_SURFACE('',#172,1.25);
#102=SURFACE_STYLE_USAGE(.BOTH.,#173);
#103=FACE_OUTER_BOUND('',#174,.T.);
#104=FACE_OUTER_BOUND('',#175,.T.);
#105=CYLINDRICAL_SURFACE('',#176,1.65);
#106=SURFACE_STYLE_USAGE(.BOTH.,#177);
#107=FACE_OUTER_BOUND('',#178,.T.);
#108=FACE_OUTER_BOUND('',#179,.T.);
#109=CYLINDRICAL_SURFACE('',#180,1.65);
#110=SURFACE_STYLE_USAGE(.BOTH.,#181);
#111=FACE_BOUND('',#182,.T.);
#112=FACE_BOUND('',#183,.T.);
#113=FACE_BOUND('',#184,.T.);
#114=FACE_BOUND('',#185,.T.);
#115=FACE_OUTER_BOUND('',#186,.T.);
#116=PLANE('',#187);
#117=SURFACE_STYLE_USAGE(.BOTH.,#188);
#118=FACE_OUTER_BOUND('',#189,.T.);
#119=FACE_OUTER_BOUND('',#190,.T.);
#120=CYLINDRICAL_SURFACE('',#191,29.95);
#121=SURFACE_STYLE_USAGE(.BOTH.,#192);
#122=FACE_OUTER_BOUND('',#193,.T.);
#123=FACE_BOUND('',#194,.T.);
#124=PLANE('',#195);
#125=SURFACE_STYLE_USAGE(.BOTH.,#196);
#126=FACE_OUTER_BOUND('',#197,.T.);
#127=FACE_OUTER_BOUND('',#198,.T.);
#128=CYLINDRICAL_SURFACE('',#199,22.5);
#129=SURFACE_STYLE_USAGE(.BOTH.,#200);
#130=FACE_OUTER_BOUND('',#201,.T.);
#131=FACE_BOUND('',#202,.T.);
#132=FACE_OUTER_BOUND('',#203,.T.);
#133=CYLINDRICAL_SURFACE('',#204,12.5);
#134=SURFACE_STYLE_USAGE(.BOTH.,#205);
#135=FACE_BOUND('',#206,.T.);
#136=FACE_OUTER_BOUND('',#207,.T.);
#137=CONICAL_SURFACE('',#208,12.5,0.785398163397448);
#138=SURFACE_STYLE_USAGE(.BOTH.,#209);
#139=FACE_OUTER_BOUND('',#210,.T.);
#140=FACE_OUTER_BOUND('',#211,.T.);
#141=CYLINDRICAL_SURFACE('',#212,1.65);
#142=SURFACE_STYLE_USAGE(.BOTH.,#213);
#143=FACE_OUTER_BOUND('',#214,.T.);
#144=FACE_BOUND('',#215,.T.);
#145=PLANE('',#216);
#146=PRODUCT_CONTEXT('',#24,'mechanical');
#147=PRODUCT_DEFINITION_FORMATION_WITH_SPECIFIED_SOURCE(' ','NONE',#65,.NOT_KNOWN.);
#148=CLOSED_SHELL('',(#44,#58,#40,#60,#62,#64,#38,#52,#50,#42,#56,#54,#46,#48));
#149=CARTESIAN_POINT('',(0.0,0.0,0.0));
#150=DIRECTION('',(0.0,0.0,1.0));
#151=DIRECTION('',(1.0,0.0,0.0));
#152= (NAMED_UNIT(#74)LENGTH_UNIT()SI_UNIT(.MILLI.,.METRE.));
#153=SURFACE_SIDE_STYLE('',(#218));
#154=EDGE_LOOP('',(#219));
#155=EDGE_LOOP('',(#220));
#156=EDGE_LOOP('',(#221));
#157=EDGE_LOOP('',(#222));
#158=EDGE_LOOP('',(#223));
#159=AXIS2_PLACEMENT_3D('',#224,#225,#226);
#160=SURFACE_SIDE_STYLE('',(#227));
#161=EDGE_LOOP('',(#228));
#162=EDGE_LOOP('',(#229));
#163=AXIS2_PLACEMENT_3D('',#230,#231,#232);
#164=SURFACE_SIDE_STYLE('',(#233));
#165=EDGE_LOOP('',(#234));
#166=EDGE_LOOP('',(#235));
#167=EDGE_LOOP('',(#236));
#168=AXIS2_PLACEMENT_3D('',#237,#238,#239);
#169=SURFACE_SIDE_STYLE('',(#240));
#170=EDGE_LOOP('',(#241));
#171=EDGE_LOOP('',(#242));
#172=AXIS2_PLACEMENT_3D('',#243,#244,#245);
#173=SURFACE_SIDE_STYLE('',(#246));
#174=EDGE_LOOP('',(#247));
#175=EDGE_LOOP('',(#248));
#176=AXIS2_PLACEMENT_3D('',#249,#250,#251);
#177=SURFACE_SIDE_STYLE('',(#252));
#178=EDGE_LOOP('',(#253));
#179=EDGE_LOOP('',(#254));
#180=AXIS2_PLACEMENT_3D('',#255,#256,#257);
#181=SURFACE_SIDE_STYLE('',(#258));
#182=EDGE_LOOP('',(#259));
#183=EDGE_LOOP('',(#260));
#184=EDGE_LOOP('',(#261));
#185=EDGE_LOOP('',(#262));
#186=EDGE_LOOP('',(#263));
#187=AXIS2_PLACEMENT_3D('',#264,#265,#266);
#188=SURFACE_SIDE_STYLE('',(#267));
#189=EDGE_LOOP('',(#268));
#190=EDGE_LOOP('',(#269));
#191=AXIS2_PLACEMENT_3D('',#270,#271,#272);
#192=SURFACE_SIDE_STYLE('',(#273));
#193=EDGE_LOOP('',(#274));
#194=EDGE_LOOP('',(#275));
#195=AXIS2_PLACEMENT_3D('',#276,#277,#278);
#196=SURFACE_SIDE_STYLE('',(#279));
#197=EDGE_LOOP('',(#280));
#198=EDGE_LOOP('',(#281));
#199=AXIS2_PLACEMENT_3D('',#282,#283,#284);
#200=SURFACE_SIDE_STYLE('',(#285));
#201=EDGE_LOOP('',(#286));
#202=EDGE_LOOP('',(#287));
#203=EDGE_LOOP('',(#288));
#204=AXIS2_PLACEMENT_3D('',#289,#290,#291);
#205=SURFACE_SIDE_STYLE('',(#292));
#206=EDGE_LOOP('',(#293));
#207=EDGE_LOOP('',(#294));
#208=AXIS2_PLACEMENT_3D('',#295,#296,#297);
#209=SURFACE_SIDE_STYLE('',(#298));
#210=EDGE_LOOP('',(#299));
#211=EDGE_LOOP('',(#300));
#212=AXIS2_PLACEMENT_3D('',#301,#302,#303);
#213=SURFACE_SIDE_STYLE('',(#304));
#214=EDGE_LOOP('',(#305));
#215=EDGE_LOOP('',(#306));
#216=AXIS2_PLACEMENT_3D('',#307,#308,#309);
#218=SURFACE_STYLE_FILL_AREA(#310);
#219=ORIENTED_EDGE('',*,*,#311,.T.);
#220=ORIENTED_EDGE('',*,*,#312,.F.);
#221=ORIENTED_EDGE('',*,*,#313,.F.);
#222=ORIENTED_EDGE('',*,*,#314,.F.);
#223=ORIENTED_EDGE('',*,*,#315,.T.);
#224=CARTESIAN_POINT('',(0.0,36.4,-20.9));
#225=DIRECTION('',(0.0,-1.83697019872103E-016,-1.0));
#226=DIRECTION('',(0.0,1.0,-1.83697019872103E-016));
#227=SURFACE_STYLE_FILL_AREA(#316);
#228=ORIENTED_EDGE('',*,*,#311,.F.);
#229=ORIENTED_EDGE('',*,*,#317,.F.);
#230=CARTESIAN_POINT('',(0.0,36.4,-20.4));
#231=DIRECTION('',(-0.0,-0.0,1.0));
#232=DIRECTION('',(1.0,0.0,0.0));
#233=SURFACE_STYLE_FILL_AREA(#318);
#234=ORIENTED_EDGE('',*,*,#319,.T.);
#235=ORIENTED_EDGE('',*,*,#320,.T.);
#236=ORIENTED_EDGE('',*,*,#321,.F.);
#237=CARTESIAN_POINT('',(0.0,36.4,-16.7900000000786));
#238=DIRECTION('',(-0.0,-1.83697019872103E-016,-1.0));
#239=DIRECTION('',(-1.0,0.0,0.0));
#240=SURFACE_STYLE_FILL_AREA(#322);
#241=ORIENTED_EDGE('',*,*,#323,.T.);
#242=ORIENTED_EDGE('',*,*,#320,.F.);
#243=CARTESIAN_POINT('',(7.65404249467096E-016,48.9,-25.4));
#244=DIRECTION('',(6.12323399573677E-017,1.0,1.85460307534371E-064));
#245=DIRECTION('',(1.0,-6.12323399573677E-017,1.12481983699639E-032));
#246=SURFACE_STYLE_FILL_AREA(#324);
#247=ORIENTED_EDGE('',*,*,#313,.T.);
#248=ORIENTED_EDGE('',*,*,#325,.F.);
#249=CARTESIAN_POINT('',(21.650635094611,23.9,-22.5500000000611));
#250=DIRECTION('',(0.0,1.83697019872103E-016,1.0));
#251=DIRECTION('',(-0.5,-0.866025403784439,1.59086285808736E-016));
#252=SURFACE_STYLE_FILL_AREA(#326);
#253=ORIENTED_EDGE('',*,*,#314,.T.);
#254=ORIENTED_EDGE('',*,*,#327,.F.);
#255=CARTESIAN_POINT('',(0.0,61.4,-22.5500000000612));
#256=DIRECTION('',(-0.0,1.83697019872103E-016,1.0));
#257=DIRECTION('',(1.0,0.0,0.0));
#258=SURFACE_STYLE_FILL_AREA(#328);
#259=ORIENTED_EDGE('',*,*,#329,.T.);
#260=ORIENTED_EDGE('',*,*,#330,.T.);
#261=ORIENTED_EDGE('',*,*,#325,.T.);
#262=ORIENTED_EDGE('',*,*,#327,.T.);
#263=ORIENTED_EDGE('',*,*,#331,.F.);
#264=CARTESIAN_POINT('',(0.0,36.4,-16.9));
#265=DIRECTION('',(0.0,1.83697019872103E-016,1.0));
#266=DIRECTION('',(0.0,-1.0,1.83697019872103E-016));
#267=SURFACE_STYLE_FILL_AREA(#332);
#268=ORIENTED_EDGE('',*,*,#317,.T.);
#269=ORIENTED_EDGE('',*,*,#331,.T.);
#270=CARTESIAN_POINT('',(0.0,36.4,-16.9));
#271=DIRECTION('',(0.0,-1.83697019872103E-016,-1.0));
#272=DIRECTION('',(1.0,0.0,0.0));
#273=SURFACE_STYLE_FILL_AREA(#333);
#274=ORIENTED_EDGE('',*,*,#334,.T.);
#275=ORIENTED_EDGE('',*,*,#319,.F.);
#276=CARTESIAN_POINT('',(0.0,36.4,-18.4));
#277=DIRECTION('',(0.0,-1.83697019872103E-016,-1.0));
#278=DIRECTION('',(0.0,1.0,-1.83697019872103E-016));
#279=SURFACE_STYLE_FILL_AREA(#335);
#280=ORIENTED_EDGE('',*,*,#329,.F.);
#281=ORIENTED_EDGE('',*,*,#334,.F.);
#282=CARTESIAN_POINT('',(0.0,36.4,-18.4));
#283=DIRECTION('',(-0.0,1.83697019872103E-016,1.0));
#284=DIRECTION('',(1.0,0.0,0.0));
#285=SURFACE_STYLE_FILL_AREA(#336);
#286=ORIENTED_EDGE('',*,*,#337,.T.);
#287=ORIENTED_EDGE('',*,*,#323,.F.);
#288=ORIENTED_EDGE('',*,*,#315,.F.);
#289=CARTESIAN_POINT('',(0.0,36.4,-16.9));
#290=DIRECTION('',(0.0,-1.83697019872103E-016,-1.0));
#291=DIRECTION('',(1.0,0.0,0.0));
#292=SURFACE_STYLE_FILL_AREA(#338);
#293=ORIENTED_EDGE('',*,*,#339,.F.);
#294=ORIENTED_EDGE('',*,*,#337,.F.);
#295=CARTESIAN_POINT('',(0.0,36.4,-27.4));
#296=DIRECTION('',(-0.0,-0.0,1.0));
#297=DIRECTION('',(1.0,0.0,0.0));
#298=SURFACE_STYLE_FILL_AREA(#340);
#299=ORIENTED_EDGE('',*,*,#312,.T.);
#300=ORIENTED_EDGE('',*,*,#330,.F.);
#301=CARTESIAN_POINT('',(-21.650635094611,23.9,-22.5500000000611));
#302=DIRECTION('',(-1.727080772558E-032,1.83697019872103E-016,1.0));
#303=DIRECTION('',(-0.5,0.866025403784438,-1.59086285808736E-016));
#304=SURFACE_STYLE_FILL_AREA(#341);
#305=ORIENTED_EDGE('',*,*,#339,.T.);
#306=ORIENTED_EDGE('',*,*,#321,.T.);
#307=CARTESIAN_POINT('',(0.0,36.4,-27.9));
#308=DIRECTION('',(0.0,-1.83697019872103E-016,-1.0));
#309=DIRECTION('',(0.0,1.0,-1.83697019872103E-016));
#310=FILL_AREA_STYLE('',(#342));
#311=EDGE_CURVE('',#343,#343,#344,.T.);
#312=EDGE_CURVE('',#345,#345,#346,.T.);
#313=EDGE_CURVE('',#347,#347,#348,.T.);
#314=EDGE_CURVE('',#349,#349,#350,.T.);
#315=EDGE_CURVE('',#351,#351,#352,.F.);
#316=FILL_AREA_STYLE('',(#353));
#317=EDGE_CURVE('',#354,#354,#355,.F.);
#318=FILL_AREA_STYLE('',(#356));
#319=EDGE_CURVE('',#357,#357,#358,.F.);
#320=EDGE_CURVE('',#359,#359,#360,.T.);
#321=EDGE_CURVE('',#361,#361,#362,.T.);
#322=FILL_AREA_STYLE('',(#363));
#323=EDGE_CURVE('',#364,#364,#365,.T.);
#324=FILL_AREA_STYLE('',(#366));
#325=EDGE_CURVE('',#367,#367,#368,.T.);
#326=FILL_AREA_STYLE('',(#369));
#327=EDGE_CURVE('',#370,#370,#371,.T.);
#328=FILL_AREA_STYLE('',(#372));
#329=EDGE_CURVE('',#373,#373,#374,.T.);
#330=EDGE_CURVE('',#375,#375,#376,.T.);
#331=EDGE_CURVE('',#377,#377,#378,.T.);
#332=FILL_AREA_STYLE('',(#379));
#333=FILL_AREA_STYLE('',(#380));
#334=EDGE_CURVE('',#381,#381,#382,.T.);
#335=FILL_AREA_STYLE('',(#383));
#336=FILL_AREA_STYLE('',(#384));
#337=EDGE_CURVE('',#385,#385,#386,.F.);
#338=FILL_AREA_STYLE('',(#387));
#339=EDGE_CURVE('',#388,#388,#389,.T.);
#340=FILL_AREA_STYLE('',(#390));
#341=FILL_AREA_STYLE('',(#391));
#342=FILL_AREA_STYLE_COLOUR('',#392);
#343=VERTEX_POINT('',#393);
#344=CIRCLE('',#394,29.45);
#345=VERTEX_POINT('',#395);
#346=CIRCLE('',#396,1.65);
#347=VERTEX_POINT('',#397);
#348=CIRCLE('',#398,1.65);
#349=VERTEX_POINT('',#399);
#350=CIRCLE('',#400,1.65);
#351=VERTEX_POINT('',#401);
#352=CIRCLE('',#402,12.5);
#353=FILL_AREA_STYLE_COLOUR('',#403);
#354=VERTEX_POINT('',#404);
#355=CIRCLE('',#405,29.95);
#356=FILL_AREA_STYLE_COLOUR('',#406);
#357=VERTEX_POINT('',#407);
#358=CIRCLE('',#408,3.0);
#359=VERTEX_POINT('',#409);
#360=B_SPLINE_CURVE_WITH_KNOTS('',3,(#410,#411,#412,#413,#414,#415,#416,#417,#418,#419,#420,#421,#422,#423,#424,#425,#426,#427,#428,#429,#430,#431,#432,#433,#434,#435,#436,#437,#438,#439,#440,#441,#442,#443,#444,#445,#446,#447,#448,#449,#450,#451),.UNSPECIFIED.,.T.,.F.,(2,2,2,2,2,2,2,2,2,2,2,2,2,2,2,2,2,2,2,2,2,2,2),(-0.000493985702867622,0.0,0.000246992851433815,0.00049398570286763,0.00098797140573525,0.00148195710860287,0.00197594281147049,0.0022229356629043,0.00246992851433811,0.00296391421720574,0.00345789992007336,0.00395188562294098,0.00444587132580861,0.00493985702867623,0.00518684988011004,0.00543384273154385,0.00568083558297766,0.00592782843441148,0.0064218141372791,0.00691579984014672,0.00740978554301434,0.00790377124588197,0.00815076409731578),.UNSPECIFIED.);
#361=VERTEX_POINT('',#452);
#362=CIRCLE('',#453,3.0);
#363=FILL_AREA_STYLE_COLOUR('',#454);
#364=VERTEX_POINT('',#455);
#365=B_SPLINE_CURVE_WITH_KNOTS('',3,(#456,#457,#458,#459,#460,#461,#462,#463,#464,#465,#466,#467,#468,#469,#470,#471,#472,#473,#474,#475,#476,#477,#478,#479,#480,#481,#482,#483,#484,#485,#486,#487,#488,#489,#490,#491),.UNSPECIFIED.,.T.,.F.,(2,2,2,2,2,2,2,2,2,2,2,2,2,2,2,2,2,2,2,2),(-0.000488756592129296,0.0,0.000488756592129286,0.000977513184258571,0.00146626977638786,0.00195502636851714,0.00244378296064643,0.00293253955277571,0.003421296144905,0.00366567444096964,0.00391005273703429,0.00439880932916358,0.00488756592129288,0.00537632251342217,0.00586507910555147,0.00635383569768076,0.00684259228981006,0.00733134888193935,0.00782010547406865,0.00830886206619793),.UNSPECIFIED.);
#366=FILL_AREA_STYLE_COLOUR('',#492);
#367=VERTEX_POINT('',#493);
#368=CIRCLE('',#494,1.65);
#369=FILL_AREA_STYLE_COLOUR('',#495);
#370=VERTEX_POINT('',#496);
#371=CIRCLE('',#497,1.65);
#372=FILL_AREA_STYLE_COLOUR('',#498);
#373=VERTEX_POINT('',#499);
#374=CIRCLE('',#500,22.5);
#375=VERTEX_POINT('',#501);
#376=CIRCLE('',#502,1.65);
#377=VERTEX_POINT('',#503);
#378=CIRCLE('',#504,29.95);
#379=FILL_AREA_STYLE_COLOUR('',#505);
#380=FILL_AREA_STYLE_COLOUR('',#506);
#381=VERTEX_POINT('',#507);
#382=CIRCLE('',#508,22.5);
#383=FILL_AREA_STYLE_COLOUR('',#509);
#384=FILL_AREA_STYLE_COLOUR('',#510);
#385=VERTEX_POINT('',#511);
#386=CIRCLE('',#512,12.5);
#387=FILL_AREA_STYLE_COLOUR('',#513);
#388=VERTEX_POINT('',#514);
#389=CIRCLE('',#515,12.0);
#390=FILL_AREA_STYLE_COLOUR('',#516);
#391=FILL_AREA_STYLE_COLOUR('',#517);
#392=COLOUR_RGB('',0.0,1.0,1.0);
#393=CARTESIAN_POINT('',(0.0,65.85,-20.9));
#394=AXIS2_PLACEMENT_3D('',#518,#519,#520);
#395=CARTESIAN_POINT('',(-21.650635094611,25.55,-20.9));
#396=AXIS2_PLACEMENT_3D('',#521,#522,#523);
#397=CARTESIAN_POINT('',(21.650635094611,25.55,-20.9));
#398=AXIS2_PLACEMENT_3D('',#524,#525,#526);
#399=CARTESIAN_POINT('',(0.0,63.05,-20.9));
#400=AXIS2_PLACEMENT_3D('',#527,#528,#529);
#401=CARTESIAN_POINT('',(-3.06161699786838E-015,48.9,-20.9));
#402=AXIS2_PLACEMENT_3D('',#530,#531,#532);
#403=COLOUR_RGB('',0.0,1.0,1.0);
#404=CARTESIAN_POINT('',(-29.95,36.4,-20.4));
#405=AXIS2_PLACEMENT_3D('',#533,#534,#535);
#406=COLOUR_RGB('',0.0,1.0,1.0);
#407=CARTESIAN_POINT('',(-7.34788079488412E-016,39.4,-18.4));
#408=AXIS2_PLACEMENT_3D('',#536,#537,#538);
#409=CARTESIAN_POINT('',(1.25,39.127178028659,-25.4));
#410=CARTESIAN_POINT('',(1.25,39.127178028659,-25.2327946135537));
#411=CARTESIAN_POINT('',(1.25,39.127178028659,-25.4836026932231));
#412=CARTESIAN_POINT('',(1.24169943235134,39.1310247046019,-25.5655913877825));
#413=CARTESIAN_POINT('',(1.20938142981175,39.1454890228654,-25.7265494529713));
#414=CARTESIAN_POINT('',(1.18492751398668,39.1562855949023,-25.806352345449));
#415=CARTESIAN_POINT('',(1.0904631928311,39.1956294463601,-26.0325280968454));
#416=CARTESIAN_POINT('',(0.997995128861336,39.2316425790855,-26.169703514973));
#417=CARTESIAN_POINT('',(0.770301307993275,39.3018666178556,-26.3975337954659));
#418=CARTESIAN_POINT('',(0.632569660805061,39.3364917962307,-26.4903347795264));
#419=CARTESIAN_POINT('',(0.332368058667351,39.3854078312149,-26.6159382306654));
#420=CARTESIAN_POINT('',(0.166729903694555,39.3999192438202,-26.6498061850596));
#421=CARTESIAN_POINT('',(-0.0811757809320817,39.4000398455933,-26.650095629478));
#422=CARTESIAN_POINT('',(-0.164975447334466,39.3965524707493,-26.6417905788614));
#423=CARTESIAN_POINT('',(-0.326217540823474,39.3833078493907,-26.6094804074607));
#424=CARTESIAN_POINT('',(-0.404881921591931,39.3735547470606,-26.5854888252551));
#425=CARTESIAN_POINT('',(-0.633434310584926,39.3364246612112,-26.4901896509877));
#426=CARTESIAN_POINT('',(-0.769802279420345,39.3020148927451,-26.3979997356683));
#427=CARTESIAN_POINT('',(-0.998236105410438,39.2315738847803,-26.1694957437502));
#428=CARTESIAN_POINT('',(-1.0905994466026,39.1955679266892,-26.0320447165576));
#429=CARTESIAN_POINT('',(-1.2159205002032,39.1433819498657,-25.7323025937964));
#430=CARTESIAN_POINT('',(-1.24979135227161,39.1272736620966,-25.5661707698071));
#431=CARTESIAN_POINT('',(-1.25020665815966,39.1270833071382,-25.236983249804));
#432=CARTESIAN_POINT('',(-1.21703309106486,39.142896461208,-25.0710927080828));
#433=CARTESIAN_POINT('',(-1.09113939973361,39.1953649765287,-24.7685220813266));
#434=CARTESIAN_POINT('',(-0.999440851746426,39.231180923564,-24.6318366433097));
#435=CARTESIAN_POINT('',(-0.827039933137843,39.2843754624733,-24.4591922679576));
#436=CARTESIAN_POINT('',(-0.764781601365373,39.3017012585006,-24.407956428403));
#437=CARTESIAN_POINT('',(-0.630563910712649,39.3337945132333,-24.3176735703861));
#438=CARTESIAN_POINT('',(-0.557665440604413,39.3487033882858,-24.2783067030037));
#439=CARTESIAN_POINT('',(-0.406781897309831,39.3732761230255,-24.2152151738852));
#440=CARTESIAN_POINT('',(-0.328743810560835,39.3830340595337,-24.191192948124));
#441=CARTESIAN_POINT('',(-0.167252853937546,39.3964297382334,-24.1585035382665));
#442=CARTESIAN_POINT('',(-0.0834124780898596,39.3999731958765,-24.1500643299124));
#443=CARTESIAN_POINT('',(0.163915949138692,39.400053138118,-24.149872468485));
#444=CARTESIAN_POINT('',(0.33009600793363,39.3856951694895,-24.1833545699519));
#445=CARTESIAN_POINT('',(0.631687247206609,39.3367175964473,-24.3090551349279));
#446=CARTESIAN_POINT('',(0.76903388474613,39.3022426639742,-24.4012859888129));
#447=CARTESIAN_POINT('',(0.998586340001391,39.2314750428076,-24.6308003421791));
#448=CARTESIAN_POINT('',(1.08983053417389,39.1958926924166,-24.7659654628071));
#449=CARTESIAN_POINT('',(1.2170295292393,39.1429155411142,-25.0705011190753));
#450=CARTESIAN_POINT('',(1.25,39.127178028659,-25.2327946135537));
#451=CARTESIAN_POINT('',(1.25,39.127178028659,-25.4836026932231));
#452=CARTESIAN_POINT('',(-3.0,36.4,-27.9));
#453=AXIS2_PLACEMENT_3D('',#539,#540,#541);
#454=COLOUR_RGB('',0.0,1.0,1.0);
#455=CARTESIAN_POINT('',(1.25,48.8373429638328,-25.4));
#456=CARTESIAN_POINT('',(1.25,48.8373429638328,-25.2347273436119));
#457=CARTESIAN_POINT('',(1.25,48.8373429638328,-25.5652726563881));
#458=CARTESIAN_POINT('',(1.2174267652976,48.8407332854458,-25.7274416145858));
#459=CARTESIAN_POINT('',(1.09190846699769,48.8523776247012,-26.0301443005569));
#460=CARTESIAN_POINT('',(0.999044371167132,48.8605481250399,-26.1687457347399));
#461=CARTESIAN_POINT('',(0.768544919963164,48.8768861475127,-26.3991988622093));
#462=CARTESIAN_POINT('',(0.629169966171265,48.8850628534683,-26.4923139183502));
#463=CARTESIAN_POINT('',(0.328397143638274,48.8965917200425,-26.6170291116501));
#464=CARTESIAN_POINT('',(0.163834798521633,48.8999910650906,-26.6499106508926));
#465=CARTESIAN_POINT('',(-0.162468547899591,48.9000088975766,-26.6500889757792));
#466=CARTESIAN_POINT('',(-0.326357424433216,48.8966574057634,-26.617716749481));
#467=CARTESIAN_POINT('',(-0.629157370387239,48.8850757502224,-26.4924762028239));
#468=CARTESIAN_POINT('',(-0.766748068066628,48.8770107475469,-26.4009178630443));
#469=CARTESIAN_POINT('',(-1.00025485179773,48.8604650806356,-26.1676127929498));
#470=CARTESIAN_POINT('',(-1.09190247922243,48.8523781900465,-26.0301604727967));
#471=CARTESIAN_POINT('',(-1.18605309216684,48.8436438178526,-25.8031021879913));
#472=CARTESIAN_POINT('',(-1.20972246096558,48.8413355666404,-25.725189383307));
#473=CARTESIAN_POINT('',(-1.24176136027667,48.8381786383071,-25.5649402670789));
#474=CARTESIAN_POINT('',(-1.24996992114193,48.8373459868715,-25.4820583600909));
#475=CARTESIAN_POINT('',(-1.25005990437048,48.8373369432174,-25.2372617181891));
#476=CARTESIAN_POINT('',(-1.21733167449256,48.8407399478438,-25.0727095955433));
#477=CARTESIAN_POINT('',(-1.09285686806437,48.8522917859133,-24.7717649480514));
#478=CARTESIAN_POINT('',(-0.999859226934937,48.8604816135256,-24.6323150124188));
#479=CARTESIAN_POINT('',(-0.769609068532665,48.8768194022487,-24.4016210161082));
#480=CARTESIAN_POINT('',(-0.631072038639145,48.8849772146747,-24.3086360233478));
#481=CARTESIAN_POINT('',(-0.328587568466829,48.8965970639509,-24.1828897102829));
#482=CARTESIAN_POINT('',(-0.166354141580589,48.8999842287699,-24.1501577123712));
#483=CARTESIAN_POINT('',(0.163975509955906,48.9000156580723,-24.1498434192067));
#484=CARTESIAN_POINT('',(0.326269510472959,48.896660555727,-24.1822495771238));
#485=CARTESIAN_POINT('',(0.629210271072414,48.8850739394408,-24.3075429891037));
#486=CARTESIAN_POINT('',(0.767839619415594,48.8769304879045,-24.4002544343345));
#487=CARTESIAN_POINT('',(0.998537047794169,48.8605897069652,-24.6305894194939));
#488=CARTESIAN_POINT('',(1.09175815611168,48.852389439937,-24.7698660566398));
#489=CARTESIAN_POINT('',(1.21673898517489,48.8407992057282,-25.0705293640298));
#490=CARTESIAN_POINT('',(1.25,48.8373429638328,-25.2347273436119));
#491=CARTESIAN_POINT('',(1.25,48.8373429638328,-25.5652726563881));
#492=COLOUR_RGB('',0.0,1.0,1.0);
#493=CARTESIAN_POINT('',(20.825635094611,22.4710580837557,-16.9));
#494=AXIS2_PLACEMENT_3D('',#542,#543,#544);
#495=COLOUR_RGB('',0.0,1.0,1.0);
#496=CARTESIAN_POINT('',(1.65,61.4,-16.9));
#497=AXIS2_PLACEMENT_3D('',#545,#546,#547);
#498=COLOUR_RGB('',0.0,1.0,1.0);
#499=CARTESIAN_POINT('',(22.5,36.4,-16.9));
#500=AXIS2_PLACEMENT_3D('',#548,#549,#550);
#501=CARTESIAN_POINT('',(-22.475635094611,25.3289419162443,-16.9));
#502=AXIS2_PLACEMENT_3D('',#551,#552,#553);
#503=CARTESIAN_POINT('',(29.95,36.4,-16.9));
#504=AXIS2_PLACEMENT_3D('',#554,#555,#556);
#505=COLOUR_RGB('',0.0,1.0,1.0);
#506=COLOUR_RGB('',0.0,1.0,1.0);
#507=CARTESIAN_POINT('',(22.5,36.4,-18.4));
#508=AXIS2_PLACEMENT_3D('',#557,#558,#559);
#509=COLOUR_RGB('',0.0,1.0,1.0);
#510=COLOUR_RGB('',0.0,1.0,1.0);
#511=CARTESIAN_POINT('',(-12.5,36.4,-27.4));
#512=AXIS2_PLACEMENT_3D('',#560,#561,#562);
#513=COLOUR_RGB('',0.0,1.0,1.0);
#514=CARTESIAN_POINT('',(0.0,48.4,-27.9));
#515=AXIS2_PLACEMENT_3D('',#563,#564,#565);
#516=COLOUR_RGB('',0.0,1.0,1.0);
#517=COLOUR_RGB('',0.0,1.0,1.0);
#518=CARTESIAN_POINT('',(0.0,36.4,-20.9));
#519=DIRECTION('',(0.0,-1.83697019872103E-016,-1.0));
#520=DIRECTION('',(0.0,1.0,-1.83697019872103E-016));
#521=CARTESIAN_POINT('',(-21.650635094611,23.9,-20.9));
#522=DIRECTION('',(0.0,-1.83697019872103E-016,-1.0));
#523=DIRECTION('',(0.0,1.0,-1.83697019872103E-016));
#524=CARTESIAN_POINT('',(21.650635094611,23.9,-20.9));
#525=DIRECTION('',(0.0,-1.83697019872103E-016,-1.0));
#526=DIRECTION('',(0.0,1.0,-1.83697019872103E-016));
#527=CARTESIAN_POINT('',(0.0,61.4,-20.9));
#528=DIRECTION('',(0.0,-1.83697019872103E-016,-1.0));
#529=DIRECTION('',(0.0,1.0,-1.83697019872103E-016));
#530=CARTESIAN_POINT('',(0.0,36.4,-20.9));
#531=DIRECTION('',(0.0,-1.83697019872103E-016,-1.0));
#532=DIRECTION('',(0.0,1.0,-1.83697019872103E-016));
#533=CARTESIAN_POINT('',(0.0,36.4,-20.4));
#534=DIRECTION('',(0.0,0.0,-1.0));
#535=DIRECTION('',(-1.0,0.0,0.0));
#536=CARTESIAN_POINT('',(0.0,36.4,-18.4));
#537=DIRECTION('',(0.0,-1.83697019872103E-016,-1.0));
#538=DIRECTION('',(0.0,1.0,-1.83697019872103E-016));
#539=CARTESIAN_POINT('',(0.0,36.4,-27.9));
#540=DIRECTION('',(0.0,1.83697019872103E-016,1.0));
#541=DIRECTION('',(-1.0,0.0,0.0));
#542=CARTESIAN_POINT('',(21.650635094611,23.9,-16.9));
#543=DIRECTION('',(0.0,-1.83697019872103E-016,-1.0));
#544=DIRECTION('',(-0.5,-0.866025403784439,1.59086285808736E-016));
#545=CARTESIAN_POINT('',(0.0,61.4,-16.9));
#546=DIRECTION('',(0.0,-1.83697019872103E-016,-1.0));
#547=DIRECTION('',(1.0,0.0,0.0));
#548=CARTESIAN_POINT('',(0.0,36.4,-16.9));
#549=DIRECTION('',(0.0,-1.83697019872103E-016,-1.0));
#550=DIRECTION('',(1.0,0.0,0.0));
#551=CARTESIAN_POINT('',(-21.650635094611,23.9,-16.9));
#552=DIRECTION('',(1.727080772558E-032,-1.83697019872103E-016,-1.0));
#553=DIRECTION('',(-0.5,0.866025403784438,-1.59086285808736E-016));
#554=CARTESIAN_POINT('',(0.0,36.4,-16.9));
#555=DIRECTION('',(0.0,-1.83697019872103E-016,-1.0));
#556=DIRECTION('',(1.0,0.0,0.0));
#557=CARTESIAN_POINT('',(0.0,36.4,-18.4));
#558=DIRECTION('',(-0.0,1.83697019872103E-016,1.0));
#559=DIRECTION('',(1.0,0.0,0.0));
#560=CARTESIAN_POINT('',(0.0,36.4,-27.4));
#561=DIRECTION('',(0.0,0.0,-1.0));
#562=DIRECTION('',(-1.0,0.0,0.0));
#563=CARTESIAN_POINT('',(0.0,36.4,-27.9));
#564=DIRECTION('',(0.0,-1.83697019872103E-016,-1.0));
#565=DIRECTION('',(0.0,1.0,-1.83697019872103E-016));
#566=PRESENTATION_LAYER_ASSIGNMENT('10','',(#67));
ENDSEC;
END-ISO-10303-21;
