ISO-10303-21;
HEADER;
FILE_DESCRIPTION(('STEP AP214'),'1');
FILE_NAME('BMR-003a JANTE INTER.step','2016-02-17T20:25:29',(' '),(' '),'Spatial InterOp 3D',' ',' ');
FILE_SCHEMA(('automotive_design'));
ENDSEC;
DATA;
#1=MECHANICAL_DESIGN_GEOMETRIC_PRESENTATION_REPRESENTATION(' ',(#10,#11,#12,#13,#14,#15,#16,#17,#18,#19,#20,#21,#22,#23,#24,#25),#6);
#2=PRODUCT_DEFINITION_CONTEXT('',#26,'design');
#3=APPLICATION_PROTOCOL_DEFINITION('INTERNATIONAL STANDARD','automotive_design',1994,#26);
#4=PRODUCT_CATEGORY_RELATIONSHIP('NONE','NONE',#27,#28);
#5=SHAPE_DEFINITION_REPRESENTATION(#29,#30);
#6= (GEOMETRIC_REPRESENTATION_CONTEXT(3)GLOBAL_UNCERTAINTY_ASSIGNED_CONTEXT((#33))GLOBAL_UNIT_ASSIGNED_CONTEXT((#35,#36,#37))REPRESENTATION_CONTEXT('NONE','WORKSPACE'));
#10=STYLED_ITEM('',(#39),#40);
#11=STYLED_ITEM('',(#41),#42);
#12=STYLED_ITEM('',(#43),#44);
#13=STYLED_ITEM('',(#45),#46);
#14=STYLED_ITEM('',(#47),#48);
#15=STYLED_ITEM('',(#49),#50);
#16=STYLED_ITEM('',(#51),#52);
#17=STYLED_ITEM('',(#53),#54);
#18=STYLED_ITEM('',(#55),#56);
#19=STYLED_ITEM('',(#57),#58);
#20=STYLED_ITEM('',(#59),#60);
#21=STYLED_ITEM('',(#61),#62);
#22=STYLED_ITEM('',(#63),#64);
#23=STYLED_ITEM('',(#65),#66);
#24=STYLED_ITEM('',(#67),#68);
#25=STYLED_ITEM('',(#69),#70);
#26=APPLICATION_CONTEXT(' ');
#27=PRODUCT_CATEGORY('part','NONE');
#28=PRODUCT_RELATED_PRODUCT_CATEGORY('detail',' ',(#71));
#29=PRODUCT_DEFINITION_SHAPE('NONE','NONE',#72);
#30=ADVANCED_BREP_SHAPE_REPRESENTATION('JANTE INTERIEUR',(#73,#74),#6);
#33=UNCERTAINTY_MEASURE_WITH_UNIT(LENGTH_MEASURE(0.001),#35,'','');
#35= (CONVERSION_BASED_UNIT('MILLIMETRE',#77)LENGTH_UNIT()NAMED_UNIT(#80));
#36= (NAMED_UNIT(#82)PLANE_ANGLE_UNIT()SI_UNIT($,.RADIAN.));
#37= (NAMED_UNIT(#82)SOLID_ANGLE_UNIT()SI_UNIT($,.STERADIAN.));
#39=PRESENTATION_STYLE_ASSIGNMENT((#88));
#40=ADVANCED_FACE('',(#89,#90),#91,.T.);
#41=PRESENTATION_STYLE_ASSIGNMENT((#92));
#42=ADVANCED_FACE('',(#93,#94),#95,.F.);
#43=PRESENTATION_STYLE_ASSIGNMENT((#96));
#44=ADVANCED_FACE('',(#97,#98),#99,.F.);
#45=PRESENTATION_STYLE_ASSIGNMENT((#100));
#46=ADVANCED_FACE('',(#101,#102,#103,#104,#105,#106,#107,#108),#109,.T.);
#47=PRESENTATION_STYLE_ASSIGNMENT((#110));
#48=ADVANCED_FACE('',(#111,#112),#113,.T.);
#49=PRESENTATION_STYLE_ASSIGNMENT((#114));
#50=ADVANCED_FACE('',(#115,#116),#117,.F.);
#51=PRESENTATION_STYLE_ASSIGNMENT((#118));
#52=ADVANCED_FACE('',(#119,#120),#121,.F.);
#53=PRESENTATION_STYLE_ASSIGNMENT((#122));
#54=ADVANCED_FACE('',(#123,#124),#125,.T.);
#55=PRESENTATION_STYLE_ASSIGNMENT((#126));
#56=ADVANCED_FACE('',(#127,#128),#129,.F.);
#57=PRESENTATION_STYLE_ASSIGNMENT((#130));
#58=ADVANCED_FACE('',(#131,#132),#133,.T.);
#59=PRESENTATION_STYLE_ASSIGNMENT((#134));
#60=ADVANCED_FACE('',(#135,#136),#137,.F.);
#61=PRESENTATION_STYLE_ASSIGNMENT((#138));
#62=ADVANCED_FACE('',(#139,#140),#141,.T.);
#63=PRESENTATION_STYLE_ASSIGNMENT((#142));
#64=ADVANCED_FACE('',(#143,#144,#145,#146,#147,#148,#149,#150),#151,.T.);
#65=PRESENTATION_STYLE_ASSIGNMENT((#152));
#66=ADVANCED_FACE('',(#153,#154),#155,.F.);
#67=PRESENTATION_STYLE_ASSIGNMENT((#156));
#68=ADVANCED_FACE('',(#157,#158),#159,.F.);
#69=PRESENTATION_STYLE_ASSIGNMENT((#160));
#70=ADVANCED_FACE('',(#161,#162),#163,.F.);
#71=PRODUCT('JANTE INTERIEUR','JANTE INTERIEUR','PART-JANTE INTERIEUR-DESC',(#164));
#72=PRODUCT_DEFINITION('NONE','NONE',#165,#2);
#73=MANIFOLD_SOLID_BREP('JANTE INTERIEUR',#166);
#74=AXIS2_PLACEMENT_3D('',#167,#168,#169);
#77=LENGTH_MEASURE_WITH_UNIT(LENGTH_MEASURE(1.0),#170);
#80=DIMENSIONAL_EXPONENTS(1.0,0.0,0.0,0.0,0.0,0.0,0.0);
#82=DIMENSIONAL_EXPONENTS(0.0,0.0,0.0,0.0,0.0,0.0,0.0);
#88=SURFACE_STYLE_USAGE(.BOTH.,#171);
#89=FACE_OUTER_BOUND('',#172,.T.);
#90=FACE_OUTER_BOUND('',#173,.T.);
#91=CYLINDRICAL_SURFACE('',#174,89.9);
#92=SURFACE_STYLE_USAGE(.BOTH.,#175);
#93=FACE_OUTER_BOUND('',#176,.T.);
#94=FACE_OUTER_BOUND('',#177,.T.);
#95=CYLINDRICAL_SURFACE('',#178,2.5);
#96=SURFACE_STYLE_USAGE(.BOTH.,#179);
#97=FACE_OUTER_BOUND('',#180,.T.);
#98=FACE_OUTER_BOUND('',#181,.T.);
#99=CYLINDRICAL_SURFACE('',#182,100.1);
#100=SURFACE_STYLE_USAGE(.BOTH.,#183);
#101=FACE_BOUND('',#184,.T.);
#102=FACE_BOUND('',#185,.T.);
#103=FACE_BOUND('',#186,.T.);
#104=FACE_BOUND('',#187,.T.);
#105=FACE_BOUND('',#188,.T.);
#106=FACE_BOUND('',#189,.T.);
#107=FACE_BOUND('',#190,.T.);
#108=FACE_OUTER_BOUND('',#191,.T.);
#109=PLANE('',#192);
#110=SURFACE_STYLE_USAGE(.BOTH.,#193);
#111=FACE_OUTER_BOUND('',#194,.T.);
#112=FACE_OUTER_BOUND('',#195,.T.);
#113=TOROIDAL_SURFACE('',#196,108.0,2.0);
#114=SURFACE_STYLE_USAGE(.BOTH.,#197);
#115=FACE_OUTER_BOUND('',#198,.T.);
#116=FACE_OUTER_BOUND('',#199,.T.);
#117=CYLINDRICAL_SURFACE('',#200,2.5);
#118=SURFACE_STYLE_USAGE(.BOTH.,#201);
#119=FACE_OUTER_BOUND('',#202,.T.);
#120=FACE_OUTER_BOUND('',#203,.T.);
#121=CYLINDRICAL_SURFACE('',#204,88.0);
#122=SURFACE_STYLE_USAGE(.BOTH.,#205);
#123=FACE_OUTER_BOUND('',#206,.T.);
#124=FACE_OUTER_BOUND('',#207,.T.);
#125=CYLINDRICAL_SURFACE('',#208,110.0);
#126=SURFACE_STYLE_USAGE(.BOTH.,#209);
#127=FACE_OUTER_BOUND('',#210,.T.);
#128=FACE_OUTER_BOUND('',#211,.T.);
#129=CYLINDRICAL_SURFACE('',#212,2.5);
#130=SURFACE_STYLE_USAGE(.BOTH.,#213);
#131=FACE_BOUND('',#214,.T.);
#132=FACE_OUTER_BOUND('',#215,.T.);
#133=CONICAL_SURFACE('',#216,109.0,1.0471975511966);
#134=SURFACE_STYLE_USAGE(.BOTH.,#217);
#135=FACE_OUTER_BOUND('',#218,.T.);
#136=FACE_OUTER_BOUND('',#219,.T.);
#137=CYLINDRICAL_SURFACE('',#220,2.5);
#138=SURFACE_STYLE_USAGE(.BOTH.,#221);
#139=FACE_BOUND('',#222,.T.);
#140=FACE_OUTER_BOUND('',#223,.T.);
#141=PLANE('',#224);
#142=SURFACE_STYLE_USAGE(.BOTH.,#225);
#143=FACE_BOUND('',#226,.T.);
#144=FACE_BOUND('',#227,.T.);
#145=FACE_BOUND('',#228,.T.);
#146=FACE_BOUND('',#229,.T.);
#147=FACE_BOUND('',#230,.T.);
#148=FACE_BOUND('',#231,.T.);
#149=FACE_BOUND('',#232,.T.);
#150=FACE_OUTER_BOUND('',#233,.T.);
#151=PLANE('',#234);
#152=SURFACE_STYLE_USAGE(.BOTH.,#235);
#153=FACE_OUTER_BOUND('',#236,.T.);
#154=FACE_OUTER_BOUND('',#237,.T.);
#155=CYLINDRICAL_SURFACE('',#238,2.5);
#156=SURFACE_STYLE_USAGE(.BOTH.,#239);
#157=FACE_OUTER_BOUND('',#240,.T.);
#158=FACE_BOUND('',#241,.T.);
#159=CONICAL_SURFACE('',#242,88.0,0.785398163397449);
#160=SURFACE_STYLE_USAGE(.BOTH.,#243);
#161=FACE_OUTER_BOUND('',#244,.T.);
#162=FACE_OUTER_BOUND('',#245,.T.);
#163=CYLINDRICAL_SURFACE('',#246,2.5);
#164=PRODUCT_CONTEXT('',#26,'mechanical');
#165=PRODUCT_DEFINITION_FORMATION_WITH_SPECIFIED_SOURCE(' ','NONE',#71,.NOT_KNOWN.);
#166=CLOSED_SHELL('',(#52,#46,#62,#54,#48,#58,#44,#64,#40,#66,#56,#42,#60,#50,#70,#68));
#167=CARTESIAN_POINT('',(0.0,0.0,0.0));
#168=DIRECTION('',(0.0,0.0,1.0));
#169=DIRECTION('',(1.0,0.0,0.0));
#170= (NAMED_UNIT(#80)LENGTH_UNIT()SI_UNIT(.MILLI.,.METRE.));
#171=SURFACE_SIDE_STYLE('',(#248));
#172=EDGE_LOOP('',(#249));
#173=EDGE_LOOP('',(#250));
#174=AXIS2_PLACEMENT_3D('',#251,#252,#253);
#175=SURFACE_SIDE_STYLE('',(#254));
#176=EDGE_LOOP('',(#255));
#177=EDGE_LOOP('',(#256));
#178=AXIS2_PLACEMENT_3D('',#257,#258,#259);
#179=SURFACE_SIDE_STYLE('',(#260));
#180=EDGE_LOOP('',(#261));
#181=EDGE_LOOP('',(#262));
#182=AXIS2_PLACEMENT_3D('',#263,#264,#265);
#183=SURFACE_SIDE_STYLE('',(#266));
#184=EDGE_LOOP('',(#267));
#185=EDGE_LOOP('',(#268));
#186=EDGE_LOOP('',(#269));
#187=EDGE_LOOP('',(#270));
#188=EDGE_LOOP('',(#271));
#189=EDGE_LOOP('',(#272));
#190=EDGE_LOOP('',(#273));
#191=EDGE_LOOP('',(#274));
#192=AXIS2_PLACEMENT_3D('',#275,#276,#277);
#193=SURFACE_SIDE_STYLE('',(#278));
#194=EDGE_LOOP('',(#279));
#195=EDGE_LOOP('',(#280));
#196=AXIS2_PLACEMENT_3D('',#281,#282,#283);
#197=SURFACE_SIDE_STYLE('',(#284));
#198=EDGE_LOOP('',(#285));
#199=EDGE_LOOP('',(#286));
#200=AXIS2_PLACEMENT_3D('',#287,#288,#289);
#201=SURFACE_SIDE_STYLE('',(#290));
#202=EDGE_LOOP('',(#291));
#203=EDGE_LOOP('',(#292));
#204=AXIS2_PLACEMENT_3D('',#293,#294,#295);
#205=SURFACE_SIDE_STYLE('',(#296));
#206=EDGE_LOOP('',(#297));
#207=EDGE_LOOP('',(#298));
#208=AXIS2_PLACEMENT_3D('',#299,#300,#301);
#209=SURFACE_SIDE_STYLE('',(#302));
#210=EDGE_LOOP('',(#303));
#211=EDGE_LOOP('',(#304));
#212=AXIS2_PLACEMENT_3D('',#305,#306,#307);
#213=SURFACE_SIDE_STYLE('',(#308));
#214=EDGE_LOOP('',(#309));
#215=EDGE_LOOP('',(#310));
#216=AXIS2_PLACEMENT_3D('',#311,#312,#313);
#217=SURFACE_SIDE_STYLE('',(#314));
#218=EDGE_LOOP('',(#315));
#219=EDGE_LOOP('',(#316));
#220=AXIS2_PLACEMENT_3D('',#317,#318,#319);
#221=SURFACE_SIDE_STYLE('',(#320));
#222=EDGE_LOOP('',(#321));
#223=EDGE_LOOP('',(#322));
#224=AXIS2_PLACEMENT_3D('',#323,#324,#325);
#225=SURFACE_SIDE_STYLE('',(#326));
#226=EDGE_LOOP('',(#327));
#227=EDGE_LOOP('',(#328));
#228=EDGE_LOOP('',(#329));
#229=EDGE_LOOP('',(#330));
#230=EDGE_LOOP('',(#331));
#231=EDGE_LOOP('',(#332));
#232=EDGE_LOOP('',(#333));
#233=EDGE_LOOP('',(#334));
#234=AXIS2_PLACEMENT_3D('',#335,#336,#337);
#235=SURFACE_SIDE_STYLE('',(#338));
#236=EDGE_LOOP('',(#339));
#237=EDGE_LOOP('',(#340));
#238=AXIS2_PLACEMENT_3D('',#341,#342,#343);
#239=SURFACE_SIDE_STYLE('',(#344));
#240=EDGE_LOOP('',(#345));
#241=EDGE_LOOP('',(#346));
#242=AXIS2_PLACEMENT_3D('',#347,#348,#349);
#243=SURFACE_SIDE_STYLE('',(#350));
#244=EDGE_LOOP('',(#351));
#245=EDGE_LOOP('',(#352));
#246=AXIS2_PLACEMENT_3D('',#353,#354,#355);
#248=SURFACE_STYLE_FILL_AREA(#356);
#249=ORIENTED_EDGE('',*,*,#357,.T.);
#250=ORIENTED_EDGE('',*,*,#358,.F.);
#251=CARTESIAN_POINT('',(0.0,0.0,0.0));
#252=DIRECTION('',(-1.0,0.0,0.0));
#253=DIRECTION('',(0.0,0.0,1.0));
#254=SURFACE_STYLE_FILL_AREA(#359);
#255=ORIENTED_EDGE('',*,*,#360,.T.);
#256=ORIENTED_EDGE('',*,*,#361,.F.);
#257=CARTESIAN_POINT('',(62.0000000001819,-47.5,82.2724133595217));
#258=DIRECTION('',(-1.0,0.0,0.0));
#259=DIRECTION('',(0.0,0.5,-0.866025403784439));
#260=SURFACE_STYLE_FILL_AREA(#362);
#261=ORIENTED_EDGE('',*,*,#363,.T.);
#262=ORIENTED_EDGE('',*,*,#364,.F.);
#263=CARTESIAN_POINT('',(0.0,0.0,0.0));
#264=DIRECTION('',(-1.0,0.0,0.0));
#265=DIRECTION('',(0.0,0.0,1.0));
#266=SURFACE_STYLE_FILL_AREA(#365);
#267=ORIENTED_EDGE('',*,*,#366,.T.);
#268=ORIENTED_EDGE('',*,*,#367,.T.);
#269=ORIENTED_EDGE('',*,*,#368,.T.);
#270=ORIENTED_EDGE('',*,*,#361,.T.);
#271=ORIENTED_EDGE('',*,*,#369,.T.);
#272=ORIENTED_EDGE('',*,*,#370,.T.);
#273=ORIENTED_EDGE('',*,*,#371,.T.);
#274=ORIENTED_EDGE('',*,*,#372,.T.);
#275=CARTESIAN_POINT('',(53.0,88.0,0.0));
#276=DIRECTION('',(-1.0,0.0,0.0));
#277=DIRECTION('',(0.0,0.0,1.0));
#278=SURFACE_STYLE_FILL_AREA(#373);
#279=ORIENTED_EDGE('',*,*,#374,.T.);
#280=ORIENTED_EDGE('',*,*,#375,.F.);
#281=CARTESIAN_POINT('',(53.8452994616208,0.0,0.0));
#282=DIRECTION('',(-1.0,0.0,0.0));
#283=DIRECTION('',(0.0,0.0,1.0));
#284=SURFACE_STYLE_FILL_AREA(#376);
#285=ORIENTED_EDGE('',*,*,#377,.T.);
#286=ORIENTED_EDGE('',*,*,#367,.F.);
#287=CARTESIAN_POINT('',(62.0000000001819,-47.5,-82.2724133595217));
#288=DIRECTION('',(-1.0,0.0,0.0));
#289=DIRECTION('',(0.0,0.5,0.866025403784438));
#290=SURFACE_STYLE_FILL_AREA(#378);
#291=ORIENTED_EDGE('',*,*,#379,.T.);
#292=ORIENTED_EDGE('',*,*,#380,.F.);
#293=CARTESIAN_POINT('',(0.0,0.0,0.0));
#294=DIRECTION('',(-1.0,0.0,0.0));
#295=DIRECTION('',(0.0,0.0,1.0));
#296=SURFACE_STYLE_FILL_AREA(#381);
#297=ORIENTED_EDGE('',*,*,#375,.T.);
#298=ORIENTED_EDGE('',*,*,#372,.F.);
#299=CARTESIAN_POINT('',(0.0,0.0,0.0));
#300=DIRECTION('',(-1.0,0.0,0.0));
#301=DIRECTION('',(0.0,0.0,1.0));
#302=SURFACE_STYLE_FILL_AREA(#382);
#303=ORIENTED_EDGE('',*,*,#383,.T.);
#304=ORIENTED_EDGE('',*,*,#369,.F.);
#305=CARTESIAN_POINT('',(62.0000000001819,47.5,82.2724133595217));
#306=DIRECTION('',(-1.0,-0.0,0.0));
#307=DIRECTION('',(0.0,-0.5,-0.866025403784439));
#308=SURFACE_STYLE_FILL_AREA(#384);
#309=ORIENTED_EDGE('',*,*,#364,.T.);
#310=ORIENTED_EDGE('',*,*,#374,.F.);
#311=CARTESIAN_POINT('',(55.5773502691897,0.0,0.0));
#312=DIRECTION('',(-1.0,0.0,-0.0));
#313=DIRECTION('',(0.0,0.0,1.0));
#314=SURFACE_STYLE_FILL_AREA(#385);
#315=ORIENTED_EDGE('',*,*,#386,.T.);
#316=ORIENTED_EDGE('',*,*,#368,.F.);
#317=CARTESIAN_POINT('',(62.0000000001819,-95.0,1.18484577817506E-014));
#318=DIRECTION('',(-1.0,0.0,0.0));
#319=DIRECTION('',(0.0,1.0,-1.22464679914735E-016));
#320=SURFACE_STYLE_FILL_AREA(#387);
#321=ORIENTED_EDGE('',*,*,#380,.T.);
#322=ORIENTED_EDGE('',*,*,#357,.F.);
#323=CARTESIAN_POINT('',(61.0,89.9,0.0));
#324=DIRECTION('',(1.0,0.0,0.0));
#325=DIRECTION('',(0.0,0.0,-1.0));
#326=SURFACE_STYLE_FILL_AREA(#388);
#327=ORIENTED_EDGE('',*,*,#389,.F.);
#328=ORIENTED_EDGE('',*,*,#377,.F.);
#329=ORIENTED_EDGE('',*,*,#386,.F.);
#330=ORIENTED_EDGE('',*,*,#360,.F.);
#331=ORIENTED_EDGE('',*,*,#383,.F.);
#332=ORIENTED_EDGE('',*,*,#390,.F.);
#333=ORIENTED_EDGE('',*,*,#358,.T.);
#334=ORIENTED_EDGE('',*,*,#363,.F.);
#335=CARTESIAN_POINT('',(59.5,100.1,0.0));
#336=DIRECTION('',(1.0,0.0,0.0));
#337=DIRECTION('',(0.0,0.0,-1.0));
#338=SURFACE_STYLE_FILL_AREA(#391);
#339=ORIENTED_EDGE('',*,*,#390,.T.);
#340=ORIENTED_EDGE('',*,*,#370,.F.);
#341=CARTESIAN_POINT('',(62.0000000001819,95.0,-2.14313189850787E-016));
#342=DIRECTION('',(-1.0,0.0,0.0));
#343=DIRECTION('',(0.0,-1.0,0.0));
#344=SURFACE_STYLE_FILL_AREA(#392);
#345=ORIENTED_EDGE('',*,*,#371,.F.);
#346=ORIENTED_EDGE('',*,*,#379,.F.);
#347=CARTESIAN_POINT('',(57.0,0.0,0.0));
#348=DIRECTION('',(-1.0,0.0,-0.0));
#349=DIRECTION('',(0.0,0.0,1.0));
#350=SURFACE_STYLE_FILL_AREA(#393);
#351=ORIENTED_EDGE('',*,*,#389,.T.);
#352=ORIENTED_EDGE('',*,*,#366,.F.);
#353=CARTESIAN_POINT('',(62.0000000001819,47.5,-82.2724133595217));
#354=DIRECTION('',(-1.0,0.0,0.0));
#355=DIRECTION('',(0.0,-0.5,0.866025403784439));
#356=FILL_AREA_STYLE('',(#394));
#357=EDGE_CURVE('',#395,#395,#396,.T.);
#358=EDGE_CURVE('',#397,#397,#398,.T.);
#359=FILL_AREA_STYLE('',(#399));
#360=EDGE_CURVE('',#400,#400,#401,.T.);
#361=EDGE_CURVE('',#402,#402,#403,.T.);
#362=FILL_AREA_STYLE('',(#404));
#363=EDGE_CURVE('',#405,#405,#406,.T.);
#364=EDGE_CURVE('',#407,#407,#408,.T.);
#365=FILL_AREA_STYLE('',(#409));
#366=EDGE_CURVE('',#410,#410,#411,.T.);
#367=EDGE_CURVE('',#412,#412,#413,.T.);
#368=EDGE_CURVE('',#414,#414,#415,.T.);
#369=EDGE_CURVE('',#416,#416,#417,.T.);
#370=EDGE_CURVE('',#418,#418,#419,.T.);
#371=EDGE_CURVE('',#420,#420,#421,.F.);
#372=EDGE_CURVE('',#422,#422,#423,.T.);
#373=FILL_AREA_STYLE('',(#424));
#374=EDGE_CURVE('',#425,#425,#426,.T.);
#375=EDGE_CURVE('',#427,#427,#428,.T.);
#376=FILL_AREA_STYLE('',(#429));
#377=EDGE_CURVE('',#430,#430,#431,.T.);
#378=FILL_AREA_STYLE('',(#432));
#379=EDGE_CURVE('',#433,#433,#434,.T.);
#380=EDGE_CURVE('',#435,#435,#436,.T.);
#381=FILL_AREA_STYLE('',(#437));
#382=FILL_AREA_STYLE('',(#438));
#383=EDGE_CURVE('',#439,#439,#440,.T.);
#384=FILL_AREA_STYLE('',(#441));
#385=FILL_AREA_STYLE('',(#442));
#386=EDGE_CURVE('',#443,#443,#444,.T.);
#387=FILL_AREA_STYLE('',(#445));
#388=FILL_AREA_STYLE('',(#446));
#389=EDGE_CURVE('',#447,#447,#448,.T.);
#390=EDGE_CURVE('',#449,#449,#450,.T.);
#391=FILL_AREA_STYLE('',(#451));
#392=FILL_AREA_STYLE('',(#452));
#393=FILL_AREA_STYLE('',(#453));
#394=FILL_AREA_STYLE_COLOUR('',#454);
#395=VERTEX_POINT('',#455);
#396=CIRCLE('',#456,89.9);
#397=VERTEX_POINT('',#457);
#398=CIRCLE('',#458,89.9);
#399=FILL_AREA_STYLE_COLOUR('',#459);
#400=VERTEX_POINT('',#460);
#401=CIRCLE('',#461,2.5);
#402=VERTEX_POINT('',#462);
#403=CIRCLE('',#463,2.5);
#404=FILL_AREA_STYLE_COLOUR('',#464);
#405=VERTEX_POINT('',#465);
#406=CIRCLE('',#466,100.1);
#407=VERTEX_POINT('',#467);
#408=CIRCLE('',#468,100.1);
#409=FILL_AREA_STYLE_COLOUR('',#469);
#410=VERTEX_POINT('',#470);
#411=CIRCLE('',#471,2.5);
#412=VERTEX_POINT('',#472);
#413=CIRCLE('',#473,2.5);
#414=VERTEX_POINT('',#474);
#415=CIRCLE('',#475,2.5);
#416=VERTEX_POINT('',#476);
#417=CIRCLE('',#477,2.5);
#418=VERTEX_POINT('',#478);
#419=CIRCLE('',#479,2.5);
#420=VERTEX_POINT('',#480);
#421=CIRCLE('',#481,92.0);
#422=VERTEX_POINT('',#482);
#423=CIRCLE('',#483,110.0);
#424=FILL_AREA_STYLE_COLOUR('',#484);
#425=VERTEX_POINT('',#485);
#426=CIRCLE('',#486,109.0);
#427=VERTEX_POINT('',#487);
#428=CIRCLE('',#488,110.0);
#429=FILL_AREA_STYLE_COLOUR('',#489);
#430=VERTEX_POINT('',#490);
#431=CIRCLE('',#491,2.5);
#432=FILL_AREA_STYLE_COLOUR('',#492);
#433=VERTEX_POINT('',#493);
#434=CIRCLE('',#494,88.0);
#435=VERTEX_POINT('',#495);
#436=CIRCLE('',#496,88.0);
#437=FILL_AREA_STYLE_COLOUR('',#497);
#438=FILL_AREA_STYLE_COLOUR('',#498);
#439=VERTEX_POINT('',#499);
#440=CIRCLE('',#500,2.5);
#441=FILL_AREA_STYLE_COLOUR('',#501);
#442=FILL_AREA_STYLE_COLOUR('',#502);
#443=VERTEX_POINT('',#503);
#444=CIRCLE('',#504,2.5);
#445=FILL_AREA_STYLE_COLOUR('',#505);
#446=FILL_AREA_STYLE_COLOUR('',#506);
#447=VERTEX_POINT('',#507);
#448=CIRCLE('',#508,2.5);
#449=VERTEX_POINT('',#509);
#450=CIRCLE('',#510,2.5);
#451=FILL_AREA_STYLE_COLOUR('',#511);
#452=FILL_AREA_STYLE_COLOUR('',#512);
#453=FILL_AREA_STYLE_COLOUR('',#513);
#454=COLOUR_RGB('',0.0,0.752941191196442,0.752941191196442);
#455=CARTESIAN_POINT('',(61.0,0.0,89.9));
#456=AXIS2_PLACEMENT_3D('',#514,#515,#516);
#457=CARTESIAN_POINT('',(59.5,0.0,89.9));
#458=AXIS2_PLACEMENT_3D('',#517,#518,#519);
#459=COLOUR_RGB('',0.0,0.752941191196442,0.752941191196442);
#460=CARTESIAN_POINT('',(59.5,-47.5,79.7724133595217));
#461=AXIS2_PLACEMENT_3D('',#520,#521,#522);
#462=CARTESIAN_POINT('',(53.0,-46.25,80.1073498500606));
#463=AXIS2_PLACEMENT_3D('',#523,#524,#525);
#464=COLOUR_RGB('',0.0,0.752941191196442,0.752941191196442);
#465=CARTESIAN_POINT('',(59.5,0.0,100.1));
#466=AXIS2_PLACEMENT_3D('',#526,#527,#528);
#467=CARTESIAN_POINT('',(60.7157676649773,0.0,100.1));
#468=AXIS2_PLACEMENT_3D('',#529,#530,#531);
#469=COLOUR_RGB('',0.0,0.752941191196442,0.752941191196442);
#470=CARTESIAN_POINT('',(53.0,46.25,-80.1073498500606));
#471=AXIS2_PLACEMENT_3D('',#532,#533,#534);
#472=CARTESIAN_POINT('',(53.0,-46.25,-80.1073498500606));
#473=AXIS2_PLACEMENT_3D('',#535,#536,#537);
#474=CARTESIAN_POINT('',(53.0,-92.5,1.15422960819638E-014));
#475=AXIS2_PLACEMENT_3D('',#538,#539,#540);
#476=CARTESIAN_POINT('',(53.0,46.25,80.1073498500606));
#477=AXIS2_PLACEMENT_3D('',#541,#542,#543);
#478=CARTESIAN_POINT('',(53.0,92.5,-2.14313189850787E-016));
#479=AXIS2_PLACEMENT_3D('',#544,#545,#546);
#480=CARTESIAN_POINT('',(53.0,-2.25335011043113E-014,92.0));
#481=AXIS2_PLACEMENT_3D('',#547,#548,#549);
#482=CARTESIAN_POINT('',(53.0,0.0,110.0));
#483=AXIS2_PLACEMENT_3D('',#550,#551,#552);
#484=COLOUR_RGB('',0.0,0.752941191196442,0.752941191196442);
#485=CARTESIAN_POINT('',(55.5773502691897,0.0,109.0));
#486=AXIS2_PLACEMENT_3D('',#553,#554,#555);
#487=CARTESIAN_POINT('',(53.8452994616208,0.0,110.0));
#488=AXIS2_PLACEMENT_3D('',#556,#557,#558);
#489=COLOUR_RGB('',0.0,0.752941191196442,0.752941191196442);
#490=CARTESIAN_POINT('',(59.5,-47.5,-84.7724133595217));
#491=AXIS2_PLACEMENT_3D('',#559,#560,#561);
#492=COLOUR_RGB('',0.0,0.752941191196442,0.752941191196442);
#493=CARTESIAN_POINT('',(57.0,0.0,88.0));
#494=AXIS2_PLACEMENT_3D('',#562,#563,#564);
#495=CARTESIAN_POINT('',(61.0,0.0,88.0));
#496=AXIS2_PLACEMENT_3D('',#565,#566,#567);
#497=COLOUR_RGB('',0.0,0.752941191196442,0.752941191196442);
#498=COLOUR_RGB('',0.0,0.752941191196442,0.752941191196442);
#499=CARTESIAN_POINT('',(59.5,47.5,79.7724133595217));
#500=AXIS2_PLACEMENT_3D('',#568,#569,#570);
#501=COLOUR_RGB('',0.0,0.752941191196442,0.752941191196442);
#502=COLOUR_RGB('',0.0,0.752941191196442,0.752941191196442);
#503=CARTESIAN_POINT('',(59.5,-95.0,-2.49999999999999));
#504=AXIS2_PLACEMENT_3D('',#571,#572,#573);
#505=COLOUR_RGB('',0.0,0.752941191196442,0.752941191196442);
#506=COLOUR_RGB('',0.0,0.752941191196442,0.752941191196442);
#507=CARTESIAN_POINT('',(59.5,47.5,-84.7724133595217));
#508=AXIS2_PLACEMENT_3D('',#574,#575,#576);
#509=CARTESIAN_POINT('',(59.5,95.0,-2.5));
#510=AXIS2_PLACEMENT_3D('',#577,#578,#579);
#511=COLOUR_RGB('',0.0,0.752941191196442,0.752941191196442);
#512=COLOUR_RGB('',0.0,0.752941191196442,0.752941191196442);
#513=COLOUR_RGB('',0.0,0.752941191196442,0.752941191196442);
#514=CARTESIAN_POINT('',(61.0,0.0,0.0));
#515=DIRECTION('',(-1.0,0.0,0.0));
#516=DIRECTION('',(0.0,0.0,1.0));
#517=CARTESIAN_POINT('',(59.5,0.0,0.0));
#518=DIRECTION('',(-1.0,0.0,0.0));
#519=DIRECTION('',(0.0,0.0,1.0));
#520=CARTESIAN_POINT('',(59.5,-47.5,82.2724133595217));
#521=DIRECTION('',(1.0,0.0,0.0));
#522=DIRECTION('',(0.0,0.0,-1.0));
#523=CARTESIAN_POINT('',(53.0,-47.5,82.2724133595217));
#524=DIRECTION('',(1.0,0.0,0.0));
#525=DIRECTION('',(0.0,0.5,-0.866025403784439));
#526=CARTESIAN_POINT('',(59.5,0.0,0.0));
#527=DIRECTION('',(-1.0,0.0,0.0));
#528=DIRECTION('',(0.0,0.0,1.0));
#529=CARTESIAN_POINT('',(60.7157676649773,0.0,0.0));
#530=DIRECTION('',(-1.0,0.0,0.0));
#531=DIRECTION('',(0.0,0.0,1.0));
#532=CARTESIAN_POINT('',(53.0,47.5,-82.2724133595217));
#533=DIRECTION('',(1.0,0.0,0.0));
#534=DIRECTION('',(0.0,-0.5,0.866025403784439));
#535=CARTESIAN_POINT('',(53.0,-47.5,-82.2724133595217));
#536=DIRECTION('',(1.0,0.0,-0.0));
#537=DIRECTION('',(0.0,0.5,0.866025403784438));
#538=CARTESIAN_POINT('',(53.0,-95.0,1.18484577817506E-014));
#539=DIRECTION('',(1.0,0.0,0.0));
#540=DIRECTION('',(0.0,1.0,-1.22464679914735E-016));
#541=CARTESIAN_POINT('',(53.0,47.5,82.2724133595217));
#542=DIRECTION('',(1.0,0.0,0.0));
#543=DIRECTION('',(0.0,-0.5,-0.866025403784439));
#544=CARTESIAN_POINT('',(53.0,95.0,-2.14313189850787E-016));
#545=DIRECTION('',(1.0,0.0,0.0));
#546=DIRECTION('',(0.0,-1.0,0.0));
#547=CARTESIAN_POINT('',(53.0,0.0,0.0));
#548=DIRECTION('',(-1.0,0.0,0.0));
#549=DIRECTION('',(0.0,0.0,1.0));
#550=CARTESIAN_POINT('',(53.0,0.0,0.0));
#551=DIRECTION('',(-1.0,0.0,0.0));
#552=DIRECTION('',(0.0,0.0,1.0));
#553=CARTESIAN_POINT('',(55.5773502691897,0.0,0.0));
#554=DIRECTION('',(-1.0,0.0,0.0));
#555=DIRECTION('',(0.0,0.0,1.0));
#556=CARTESIAN_POINT('',(53.8452994616208,0.0,0.0));
#557=DIRECTION('',(-1.0,0.0,0.0));
#558=DIRECTION('',(0.0,0.0,1.0));
#559=CARTESIAN_POINT('',(59.5,-47.5,-82.2724133595217));
#560=DIRECTION('',(1.0,0.0,0.0));
#561=DIRECTION('',(0.0,0.0,-1.0));
#562=CARTESIAN_POINT('',(57.0,0.0,0.0));
#563=DIRECTION('',(-1.0,0.0,0.0));
#564=DIRECTION('',(0.0,0.0,1.0));
#565=CARTESIAN_POINT('',(61.0,0.0,0.0));
#566=DIRECTION('',(-1.0,0.0,0.0));
#567=DIRECTION('',(0.0,0.0,1.0));
#568=CARTESIAN_POINT('',(59.5,47.5,82.2724133595217));
#569=DIRECTION('',(1.0,0.0,0.0));
#570=DIRECTION('',(0.0,0.0,-1.0));
#571=CARTESIAN_POINT('',(59.5,-95.0,1.18484577817506E-014));
#572=DIRECTION('',(1.0,0.0,0.0));
#573=DIRECTION('',(0.0,0.0,-1.0));
#574=CARTESIAN_POINT('',(59.5,47.5,-82.2724133595217));
#575=DIRECTION('',(1.0,0.0,0.0));
#576=DIRECTION('',(0.0,0.0,-1.0));
#577=CARTESIAN_POINT('',(59.5,95.0,-2.14313189850787E-016));
#578=DIRECTION('',(1.0,0.0,0.0));
#579=DIRECTION('',(0.0,0.0,-1.0));
#580=PRESENTATION_LAYER_ASSIGNMENT('43','',(#73));
ENDSEC;
END-ISO-10303-21;
