ISO-10303-21;
HEADER;
FILE_DESCRIPTION (( 'STEP AP214' ),
    '1' );
FILE_NAME ('cale pédalier.STEP',
    '2018-12-17T18:36:20',
    ( '' ),
    ( '' ),
    'SwSTEP 2.0',
    'SolidWorks 2017',
    '' );
FILE_SCHEMA (( 'AUTOMOTIVE_DESIGN' ));
ENDSEC;

DATA;
#1 = LINE ( 'NONE', #207, #220 ) ;
#2 = CARTESIAN_POINT ( 'NONE',  ( 0.0000000000000000000, 9.500000000000000000, 0.0000000000000000000 ) ) ;
#3 = DIRECTION ( 'NONE',  ( -0.0000000000000000000, -1.000000000000000000, -0.0000000000000000000 ) ) ;
#4 = CARTESIAN_POINT ( 'NONE',  ( 0.0000000000000000000, 9.500000000000000000, 0.0000000000000000000 ) ) ;
#5 = FACE_OUTER_BOUND ( 'NONE', #51, .T. ) ;
#6 = ORIENTED_EDGE ( 'NONE', *, *, #75, .F. ) ;
#7 = DIRECTION ( 'NONE',  ( 0.0000000000000000000, 1.000000000000000000, 0.0000000000000000000 ) ) ;
#8 = EDGE_CURVE ( 'NONE', #280, #47, #342, .T. ) ;
#9 =( LENGTH_UNIT ( ) NAMED_UNIT ( * ) SI_UNIT ( .MILLI., .METRE. ) );
#10 = DIRECTION ( 'NONE',  ( 1.000000000000000000, 0.0000000000000000000, 0.0000000000000000000 ) ) ;
#11 = DIRECTION ( 'NONE',  ( -0.0000000000000000000, 1.000000000000000000, -0.0000000000000000000 ) ) ;
#12 = FACE_OUTER_BOUND ( 'NONE', #184, .T. ) ;
#13 = MECHANICAL_DESIGN_GEOMETRIC_PRESENTATION_REPRESENTATION (  '', ( #212 ), #74 ) ;
#14 = CARTESIAN_POINT ( 'NONE',  ( 0.0000000000000000000, 9.000000000000007100, -19.00000000000000000 ) ) ;
#15 = CIRCLE ( 'NONE', #158, 19.00000000000000000 ) ;
#16 = UNCERTAINTY_MEASURE_WITH_UNIT (LENGTH_MEASURE( 1.000000000000000100E-005 ), #343, 'distance_accuracy_value', 'NONE');
#17 = FACE_OUTER_BOUND ( 'NONE', #131, .T. ) ;
#18 = ORIENTED_EDGE ( 'NONE', *, *, #206, .F. ) ;
#19 = ADVANCED_FACE ( 'NONE', ( #5 ), #349, .F. ) ;
#20 = EDGE_LOOP ( 'NONE', ( #106, #307, #69, #109 ) ) ;
#21 = EDGE_CURVE ( 'NONE', #280, #34, #140, .T. ) ;
#22 = PRODUCT_DEFINITION_FORMATION_WITH_SPECIFIED_SOURCE ( 'ANY', '', #217, .NOT_KNOWN. ) ;
#23 = CIRCLE ( 'NONE', #320, 18.50000000000000400 ) ;
#24 = ORIENTED_EDGE ( 'NONE', *, *, #198, .T. ) ;
#25 = EDGE_CURVE ( 'NONE', #193, #163, #322, .T. ) ;
#26 = CARTESIAN_POINT ( 'NONE',  ( 0.0000000000000000000, 9.500000000000000000, 0.0000000000000000000 ) ) ;
#27 = DIRECTION ( 'NONE',  ( 0.0000000000000000000, 0.0000000000000000000, 1.000000000000000000 ) ) ;
#28 = VERTEX_POINT ( 'NONE', #361 ) ;
#29 = DIRECTION ( 'NONE',  ( 0.0000000000000000000, 1.000000000000000000, 0.0000000000000000000 ) ) ;
#30 = DIRECTION ( 'NONE',  ( -0.0000000000000000000, -1.000000000000000000, -0.0000000000000000000 ) ) ;
#31 = COLOUR_RGB ( '',0.7921568627450980000, 0.8196078431372548800, 0.9333333333333333500 ) ;
#32 = CIRCLE ( 'NONE', #196, 19.00000000000000000 ) ;
#33 = DIRECTION ( 'NONE',  ( 0.0000000000000000000, -0.0000000000000000000, 1.000000000000000000 ) ) ;
#34 = VERTEX_POINT ( 'NONE', #330 ) ;
#35 = CARTESIAN_POINT ( 'NONE',  ( 1.898202538678397600E-015, 9.500000000000000000, -15.50000000000000000 ) ) ;
#36 =( NAMED_UNIT ( * ) PLANE_ANGLE_UNIT ( ) SI_UNIT ( $, .RADIAN. ) );
#37 = VERTEX_POINT ( 'NONE', #197 ) ;
#38 = UNCERTAINTY_MEASURE_WITH_UNIT (LENGTH_MEASURE( 1.000000000000000100E-005 ), #195, 'distance_accuracy_value', 'NONE');
#39 = APPLICATION_CONTEXT ( 'automotive_design' ) ;
#40 = AXIS2_PLACEMENT_3D ( 'NONE', #177, #154, #94 ) ;
#41 = CIRCLE ( 'NONE', #65, 15.00000000000000200 ) ;
#42 = ORIENTED_EDGE ( 'NONE', *, *, #288, .T. ) ;
#43 = UNCERTAINTY_MEASURE_WITH_UNIT (LENGTH_MEASURE( 1.000000000000000100E-005 ), #9, 'distance_accuracy_value', 'NONE');
#44 = AXIS2_PLACEMENT_3D ( 'NONE', #139, #281, #145 ) ;
#45 = AXIS2_PLACEMENT_3D ( 'NONE', #26, #308, #148 ) ;
#46 = EDGE_CURVE ( 'NONE', #241, #168, #353, .T. ) ;
#47 = VERTEX_POINT ( 'NONE', #58 ) ;
#48 = ADVANCED_FACE ( 'NONE', ( #302, #67 ), #170, .F. ) ;
#49 = SHAPE_DEFINITION_REPRESENTATION ( #240, #84 ) ;
#50 = CONICAL_SURFACE ( 'NONE', #230, 15.00000000000000200, 0.7853981633974570500 ) ;
#51 = EDGE_LOOP ( 'NONE', ( #242, #316, #262, #325 ) ) ;
#52 = EDGE_CURVE ( 'NONE', #168, #37, #328, .T. ) ;
#53 = MANIFOLD_SOLID_BREP ( 'Chanfrein2', #204 ) ;
#54 = LINE ( 'NONE', #120, #85 ) ;
#55 = ORIENTED_EDGE ( 'NONE', *, *, #233, .F. ) ;
#56 = DIRECTION ( 'NONE',  ( 0.0000000000000000000, 1.000000000000000000, 0.0000000000000000000 ) ) ;
#57 = CARTESIAN_POINT ( 'NONE',  ( 0.0000000000000000000, 9.000000000000008900, 0.0000000000000000000 ) ) ;
#58 = CARTESIAN_POINT ( 'NONE',  ( 0.0000000000000000000, 9.000000000000008900, -15.00000000000000200 ) ) ;
#59 = AXIS2_PLACEMENT_3D ( 'NONE', #4, #283, #228 ) ;
#60 = CARTESIAN_POINT ( 'NONE',  ( 1.836970198721030000E-015, 9.500000000000000000, 15.00000000000000200 ) ) ;
#61 = CARTESIAN_POINT ( 'NONE',  ( 0.0000000000000000000, 9.500000000000000000, -18.50000000000001800 ) ) ;
#62 = CIRCLE ( 'NONE', #79, 15.00000000000000200 ) ;
#63 = CARTESIAN_POINT ( 'NONE',  ( 0.0000000000000000000, 9.000000000000007100, 0.0000000000000000000 ) ) ;
#64 = DIRECTION ( 'NONE',  ( 0.0000000000000000000, 0.0000000000000000000, -1.000000000000000000 ) ) ;
#65 = AXIS2_PLACEMENT_3D ( 'NONE', #264, #71, #319 ) ;
#66 = DIRECTION ( 'NONE',  ( 0.0000000000000000000, 0.0000000000000000000, 1.000000000000000000 ) ) ;
#67 = FACE_BOUND ( 'NONE', #329, .T. ) ;
#68 = DIRECTION ( 'NONE',  ( 0.0000000000000000000, 0.0000000000000000000, 1.000000000000000000 ) ) ;
#69 = ORIENTED_EDGE ( 'NONE', *, *, #182, .T. ) ;
#70 = CARTESIAN_POINT ( 'NONE',  ( 0.0000000000000000000, 9.000000000000007100, 0.0000000000000000000 ) ) ;
#71 = DIRECTION ( 'NONE',  ( 0.0000000000000000000, 1.000000000000000000, 0.0000000000000000000 ) ) ;
#72 = CYLINDRICAL_SURFACE ( 'NONE', #59, 15.00000000000000200 ) ;
#73 = FACE_OUTER_BOUND ( 'NONE', #303, .T. ) ;
#74 =( GEOMETRIC_REPRESENTATION_CONTEXT ( 3 ) GLOBAL_UNCERTAINTY_ASSIGNED_CONTEXT ( ( #16 ) ) GLOBAL_UNIT_ASSIGNED_CONTEXT ( ( #343, #36, #102 ) ) REPRESENTATION_CONTEXT ( 'NONE', 'WORKASPACE' ) );
#75 = EDGE_CURVE ( 'NONE', #317, #163, #271, .T. ) ;
#76 = EDGE_LOOP ( 'NONE', ( #107, #86, #113, #215 ) ) ;
#77 = ADVANCED_FACE ( 'NONE', ( #187 ), #275, .T. ) ;
#78 = EDGE_CURVE ( 'NONE', #239, #28, #208, .T. ) ;
#79 = AXIS2_PLACEMENT_3D ( 'NONE', #211, #156, #124 ) ;
#80 = PRESENTATION_STYLE_ASSIGNMENT (( #289 ) ) ;
#81 = ADVANCED_FACE ( 'NONE', ( #103 ), #130, .T. ) ;
#82 = CIRCLE ( 'NONE', #363, 19.00000000000000000 ) ;
#83 = DIRECTION ( 'NONE',  ( 0.0000000000000000000, 0.0000000000000000000, -1.000000000000000000 ) ) ;
#84 = ADVANCED_BREP_SHAPE_REPRESENTATION ( 'cale pÚdalier', ( #53, #246 ), #284 ) ;
#85 = VECTOR ( 'NONE', #98, 1000.000000000000000 ) ;
#86 = ORIENTED_EDGE ( 'NONE', *, *, #52, .T. ) ;
#87 = DIRECTION ( 'NONE',  ( 0.0000000000000000000, 1.000000000000000000, 0.0000000000000000000 ) ) ;
#88 = DIRECTION ( 'NONE',  ( -0.0000000000000000000, -1.000000000000000000, -0.0000000000000000000 ) ) ;
#89 = VECTOR ( 'NONE', #91, 1000.000000000000000 ) ;
#90 = DIRECTION ( 'NONE',  ( 0.0000000000000000000, 0.0000000000000000000, 1.000000000000000000 ) ) ;
#91 = DIRECTION ( 'NONE',  ( -0.0000000000000000000, -1.000000000000000000, -0.0000000000000000000 ) ) ;
#92 = DIRECTION ( 'NONE',  ( 0.0000000000000000000, 0.7071067811865414700, 0.7071067811865536800 ) ) ;
#93 = AXIS2_PLACEMENT_3D ( 'NONE', #117, #258, #90 ) ;
#94 = DIRECTION ( 'NONE',  ( 0.0000000000000000000, 0.0000000000000000000, 1.000000000000000000 ) ) ;
#95 = CIRCLE ( 'NONE', #149, 18.50000000000000400 ) ;
#96 = ORIENTED_EDGE ( 'NONE', *, *, #78, .T. ) ;
#97 = ORIENTED_EDGE ( 'NONE', *, *, #233, .T. ) ;
#98 = DIRECTION ( 'NONE',  ( -0.0000000000000000000, -1.000000000000000000, -0.0000000000000000000 ) ) ;
#99 = DIRECTION ( 'NONE',  ( 0.0000000000000000000, 0.0000000000000000000, 1.000000000000000000 ) ) ;
#100 = ORIENTED_EDGE ( 'NONE', *, *, #331, .T. ) ;
#101 = AXIS2_PLACEMENT_3D ( 'NONE', #181, #321, #99 ) ;
#102 =( NAMED_UNIT ( * ) SI_UNIT ( $, .STERADIAN. ) SOLID_ANGLE_UNIT ( ) );
#103 = FACE_OUTER_BOUND ( 'NONE', #265, .T. ) ;
#104 = ORIENTED_EDGE ( 'NONE', *, *, #206, .T. ) ;
#105 = ADVANCED_FACE ( 'NONE', ( #214 ), #50, .F. ) ;
#106 = ORIENTED_EDGE ( 'NONE', *, *, #25, .F. ) ;
#107 = ORIENTED_EDGE ( 'NONE', *, *, #327, .F. ) ;
#108 = VECTOR ( 'NONE', #88, 1000.000000000000000 ) ;
#109 = ORIENTED_EDGE ( 'NONE', *, *, #357, .F. ) ;
#110 = DIRECTION ( 'NONE',  ( -0.0000000000000000000, 1.000000000000000000, -0.0000000000000000000 ) ) ;
#111 = DIRECTION ( 'NONE',  ( 0.0000000000000000000, -0.0000000000000000000, 1.000000000000000000 ) ) ;
#112 = CARTESIAN_POINT ( 'NONE',  ( 2.296212748401288400E-015, 9.500000000000000000, 18.50000000000001800 ) ) ;
#113 = ORIENTED_EDGE ( 'NONE', *, *, #194, .F. ) ;
#114 =( NAMED_UNIT ( * ) PLANE_ANGLE_UNIT ( ) SI_UNIT ( $, .RADIAN. ) );
#115 = AXIS2_PLACEMENT_3D ( 'NONE', #70, #186, #128 ) ;
#116 = DIRECTION ( 'NONE',  ( 0.0000000000000000000, -0.7071067811865549000, -0.7071067811865402500 ) ) ;
#117 = CARTESIAN_POINT ( 'NONE',  ( 0.0000000000000000000, 9.500000000000000000, 0.0000000000000000000 ) ) ;
#118 = VECTOR ( 'NONE', #116, 1000.000000000000100 ) ;
#119 = CYLINDRICAL_SURFACE ( 'NONE', #175, 19.00000000000000000 ) ;
#120 = CARTESIAN_POINT ( 'NONE',  ( 0.0000000000000000000, 9.500000000000000000, -15.00000000000000200 ) ) ;
#121 = VERTEX_POINT ( 'NONE', #332 ) ;
#122 = MECHANICAL_DESIGN_GEOMETRIC_PRESENTATION_REPRESENTATION (  '', ( #277 ), #346 ) ;
#123 = DIRECTION ( 'NONE',  ( 8.659560562355008000E-017, 0.7071067811865414700, -0.7071067811865536800 ) ) ;
#124 = DIRECTION ( 'NONE',  ( 0.0000000000000000000, 0.0000000000000000000, 1.000000000000000000 ) ) ;
#125 = FACE_BOUND ( 'NONE', #314, .T. ) ;
#126 = ORIENTED_EDGE ( 'NONE', *, *, #8, .F. ) ;
#127 =( NAMED_UNIT ( * ) SI_UNIT ( $, .STERADIAN. ) SOLID_ANGLE_UNIT ( ) );
#128 = DIRECTION ( 'NONE',  ( 0.0000000000000000000, 0.0000000000000000000, 1.000000000000000000 ) ) ;
#129 = APPLICATION_PROTOCOL_DEFINITION ( 'draft international standard', 'automotive_design', 1998, #293 ) ;
#130 = CYLINDRICAL_SURFACE ( 'NONE', #44, 19.00000000000000000 ) ;
#131 = EDGE_LOOP ( 'NONE', ( #141, #295, #24, #188 ) ) ;
#132 = ADVANCED_FACE ( 'NONE', ( #338 ), #312, .T. ) ;
#133 = ORIENTED_EDGE ( 'NONE', *, *, #333, .T. ) ;
#134 = ADVANCED_FACE ( 'NONE', ( #199 ), #268, .F. ) ;
#135 = AXIS2_PLACEMENT_3D ( 'NONE', #266, #291, #351 ) ;
#136 = VECTOR ( 'NONE', #92, 1000.000000000000000 ) ;
#137 = CARTESIAN_POINT ( 'NONE',  ( 2.326828918379971000E-015, 0.4999999999999935100, 19.00000000000000000 ) ) ;
#138 = AXIS2_PLACEMENT_3D ( 'NONE', #142, #335, #304 ) ;
#139 = CARTESIAN_POINT ( 'NONE',  ( 0.0000000000000000000, 9.500000000000000000, 0.0000000000000000000 ) ) ;
#140 = LINE ( 'NONE', #60, #89 ) ;
#141 = ORIENTED_EDGE ( 'NONE', *, *, #21, .F. ) ;
#142 = CARTESIAN_POINT ( 'NONE',  ( 0.0000000000000000000, 9.500000000000000000, 0.0000000000000000000 ) ) ;
#143 = DIRECTION ( 'NONE',  ( -0.0000000000000000000, -1.000000000000000000, -0.0000000000000000000 ) ) ;
#144 = EDGE_CURVE ( 'NONE', #191, #193, #23, .T. ) ;
#145 = DIRECTION ( 'NONE',  ( 0.0000000000000000000, 0.0000000000000000000, -1.000000000000000000 ) ) ;
#146 = CARTESIAN_POINT ( 'NONE',  ( 0.0000000000000000000, 9.000000000000008900, 0.0000000000000000000 ) ) ;
#147 = VECTOR ( 'NONE', #3, 1000.000000000000000 ) ;
#148 = DIRECTION ( 'NONE',  ( 0.0000000000000000000, 0.0000000000000000000, -1.000000000000000000 ) ) ;
#149 = AXIS2_PLACEMENT_3D ( 'NONE', #260, #30, #311 ) ;
#150 = DIRECTION ( 'NONE',  ( -0.0000000000000000000, -1.000000000000000000, -0.0000000000000000000 ) ) ;
#151 = EDGE_CURVE ( 'NONE', #179, #163, #32, .T. ) ;
#152 = CARTESIAN_POINT ( 'NONE',  ( 0.0000000000000000000, 0.4999999999999935100, -19.00000000000000000 ) ) ;
#153 = CONICAL_SURFACE ( 'NONE', #40, 19.00000000000000000, 0.7853981633974517200 ) ;
#154 = DIRECTION ( 'NONE',  ( -0.0000000000000000000, 1.000000000000000000, -0.0000000000000000000 ) ) ;
#155 = ORIENTED_EDGE ( 'NONE', *, *, #333, .F. ) ;
#156 = DIRECTION ( 'NONE',  ( 0.0000000000000000000, 1.000000000000000000, 0.0000000000000000000 ) ) ;
#157 = PRODUCT_CONTEXT ( 'NONE', #293, 'mechanical' ) ;
#158 = AXIS2_PLACEMENT_3D ( 'NONE', #183, #11, #68 ) ;
#159 = ORIENTED_EDGE ( 'NONE', *, *, #194, .T. ) ;
#160 = AXIS2_PLACEMENT_3D ( 'NONE', #337, #248, #83 ) ;
#161 = ORIENTED_EDGE ( 'NONE', *, *, #315, .T. ) ;
#162 = AXIS2_PLACEMENT_3D ( 'NONE', #57, #29, #336 ) ;
#163 = VERTEX_POINT ( 'NONE', #152 ) ;
#164 = ORIENTED_EDGE ( 'NONE', *, *, #52, .F. ) ;
#165 = CIRCLE ( 'NONE', #115, 19.00000000000000000 ) ;
#166 = CIRCLE ( 'NONE', #216, 15.00000000000000200 ) ;
#167 = ORIENTED_EDGE ( 'NONE', *, *, #151, .T. ) ;
#168 = VERTEX_POINT ( 'NONE', #112 ) ;
#169 = DIRECTION ( 'NONE',  ( 0.0000000000000000000, 0.0000000000000000000, 1.000000000000000000 ) ) ;
#170 = PLANE ( 'NONE',  #270 ) ;
#171 = DIRECTION ( 'NONE',  ( 0.0000000000000000000, 1.000000000000000000, 0.0000000000000000000 ) ) ;
#172 = DIRECTION ( 'NONE',  ( 8.659560562354963700E-017, 0.7071067811865451300, -0.7071067811865500200 ) ) ;
#173 = EDGE_LOOP ( 'NONE', ( #185, #126, #42, #272 ) ) ;
#174 = DIRECTION ( 'NONE',  ( 0.0000000000000000000, 0.0000000000000000000, 1.000000000000000000 ) ) ;
#175 = AXIS2_PLACEMENT_3D ( 'NONE', #2, #150, #64 ) ;
#176 = CARTESIAN_POINT ( 'NONE',  ( 0.0000000000000000000, 9.500000000000000000, 0.0000000000000000000 ) ) ;
#177 = CARTESIAN_POINT ( 'NONE',  ( 0.0000000000000000000, 0.4999999999999935100, 0.0000000000000000000 ) ) ;
#178 = PRESENTATION_STYLE_ASSIGNMENT (( #282 ) ) ;
#179 = VERTEX_POINT ( 'NONE', #137 ) ;
#180 = DIRECTION ( 'NONE',  ( 0.0000000000000000000, -1.000000000000000000, 0.0000000000000000000 ) ) ;
#181 = CARTESIAN_POINT ( 'NONE',  ( 0.0000000000000000000, 9.500000000000000000, 0.0000000000000000000 ) ) ;
#182 = EDGE_CURVE ( 'NONE', #191, #179, #203, .T. ) ;
#183 = CARTESIAN_POINT ( 'NONE',  ( 0.0000000000000000000, 0.4999999999999935100, 0.0000000000000000000 ) ) ;
#184 = EDGE_LOOP ( 'NONE', ( #326, #269 ) ) ;
#185 = ORIENTED_EDGE ( 'NONE', *, *, #251, .F. ) ;
#186 = DIRECTION ( 'NONE',  ( 0.0000000000000000000, -1.000000000000000000, 0.0000000000000000000 ) ) ;
#187 = FACE_OUTER_BOUND ( 'NONE', #323, .T. ) ;
#188 = ORIENTED_EDGE ( 'NONE', *, *, #315, .F. ) ;
#189 = ADVANCED_FACE ( 'NONE', ( #12, #125 ), #205, .T. ) ;
#190 = FACE_OUTER_BOUND ( 'NONE', #76, .T. ) ;
#191 = VERTEX_POINT ( 'NONE', #263 ) ;
#192 = EDGE_CURVE ( 'NONE', #47, #280, #166, .T. ) ;
#193 = VERTEX_POINT ( 'NONE', #341 ) ;
#194 = EDGE_CURVE ( 'NONE', #317, #37, #82, .T. ) ;
#195 =( LENGTH_UNIT ( ) NAMED_UNIT ( * ) SI_UNIT ( .MILLI., .METRE. ) );
#196 = AXIS2_PLACEMENT_3D ( 'NONE', #286, #340, #66 ) ;
#197 = CARTESIAN_POINT ( 'NONE',  ( 2.326828918379971000E-015, 9.000000000000007100, 19.00000000000000000 ) ) ;
#198 = EDGE_CURVE ( 'NONE', #47, #121, #54, .T. ) ;
#199 = FACE_OUTER_BOUND ( 'NONE', #334, .T. ) ;
#200 = ORIENTED_EDGE ( 'NONE', *, *, #290, .F. ) ;
#201 = AXIS2_PLACEMENT_3D ( 'NONE', #176, #202, #33 ) ;
#202 = DIRECTION ( 'NONE',  ( 0.0000000000000000000, 1.000000000000000000, 0.0000000000000000000 ) ) ;
#203 = LINE ( 'NONE', #301, #238 ) ;
#204 = CLOSED_SHELL ( 'NONE', ( #352, #273, #134, #19, #218, #189, #48, #81, #297, #105, #132, #77 ) ) ;
#205 = PLANE ( 'NONE',  #201 ) ;
#206 = EDGE_CURVE ( 'NONE', #193, #191, #95, .T. ) ;
#207 = CARTESIAN_POINT ( 'NONE',  ( 1.836970198721030000E-015, 9.000000000000008900, -15.00000000000000200 ) ) ;
#208 = CIRCLE ( 'NONE', #138, 15.50000000000000000 ) ;
#209 = ORIENTED_EDGE ( 'NONE', *, *, #357, .T. ) ;
#210 = FILL_AREA_STYLE ('',( #347 ) ) ;
#211 = CARTESIAN_POINT ( 'NONE',  ( 0.0000000000000000000, 0.0000000000000000000, 0.0000000000000000000 ) ) ;
#212 = STYLED_ITEM ( 'NONE', ( #80 ), #84 ) ;
#213 = CIRCLE ( 'NONE', #93, 15.50000000000000000 ) ;
#214 = FACE_OUTER_BOUND ( 'NONE', #173, .T. ) ;
#215 = ORIENTED_EDGE ( 'NONE', *, *, #331, .F. ) ;
#216 = AXIS2_PLACEMENT_3D ( 'NONE', #146, #7, #309 ) ;
#217 = PRODUCT ( 'cale pédalier', 'cale pédalier', '', ( #157 ) ) ;
#218 = ADVANCED_FACE ( 'NONE', ( #298 ), #119, .T. ) ;
#219 = DIRECTION ( 'NONE',  ( 8.659560562354844100E-017, -0.7071067811865549000, 0.7071067811865402500 ) ) ;
#220 = VECTOR ( 'NONE', #123, 1000.000000000000000 ) ;
#221 = ORIENTED_EDGE ( 'NONE', *, *, #290, .T. ) ;
#222 = CARTESIAN_POINT ( 'NONE',  ( 0.0000000000000000000, 9.000000000000008900, 0.0000000000000000000 ) ) ;
#223 = CARTESIAN_POINT ( 'NONE',  ( 0.0000000000000000000, 0.0000000000000000000, 0.0000000000000000000 ) ) ;
#224 = LINE ( 'NONE', #285, #147 ) ;
#225 = AXIS2_PLACEMENT_3D ( 'NONE', #222, #171, #362 ) ;
#226 = CARTESIAN_POINT ( 'NONE',  ( 1.836970198721030000E-015, 9.000000000000008900, 15.00000000000000200 ) ) ;
#227 = DIRECTION ( 'NONE',  ( 0.0000000000000000000, 0.0000000000000000000, 1.000000000000000000 ) ) ;
#228 = DIRECTION ( 'NONE',  ( 0.0000000000000000000, 0.0000000000000000000, -1.000000000000000000 ) ) ;
#229 = ORIENTED_EDGE ( 'NONE', *, *, #300, .T. ) ;
#230 = AXIS2_PLACEMENT_3D ( 'NONE', #250, #87, #278 ) ;
#231 = SURFACE_SIDE_STYLE ('',( #254 ) ) ;
#232 = AXIS2_PLACEMENT_3D ( 'NONE', #276, #110, #169 ) ;
#233 = EDGE_CURVE ( 'NONE', #37, #179, #224, .T. ) ;
#234 = ORIENTED_EDGE ( 'NONE', *, *, #25, .T. ) ;
#235 = APPLICATION_PROTOCOL_DEFINITION ( 'draft international standard', 'automotive_design', 1998, #39 ) ;
#236 = CONICAL_SURFACE ( 'NONE', #135, 18.50000000000001800, 0.7853981633974380600 ) ;
#237 = AXIS2_PLACEMENT_3D ( 'NONE', #279, #306, #174 ) ;
#238 = VECTOR ( 'NONE', #310, 1000.000000000000100 ) ;
#239 = VERTEX_POINT ( 'NONE', #35 ) ;
#240 = PRODUCT_DEFINITION_SHAPE ( 'NONE', 'NONE',  #274 ) ;
#241 = VERTEX_POINT ( 'NONE', #61 ) ;
#242 = ORIENTED_EDGE ( 'NONE', *, *, #192, .T. ) ;
#243 = PRESENTATION_LAYER_ASSIGNMENT (  '', '', ( #212 ) ) ;
#244 = COLOUR_RGB ( '',0.7921568627450980000, 0.8196078431372548800, 0.9333333333333333500 ) ;
#245 = SURFACE_SIDE_STYLE ('',( #294 ) ) ;
#246 = AXIS2_PLACEMENT_3D ( 'NONE', #318, #345, #10 ) ;
#247 = ORIENTED_EDGE ( 'NONE', *, *, #182, .F. ) ;
#248 = DIRECTION ( 'NONE',  ( 0.0000000000000000000, -1.000000000000000000, 0.0000000000000000000 ) ) ;
#249 = PRODUCT_DEFINITION_CONTEXT ( 'detailed design', #39, 'design' ) ;
#250 = CARTESIAN_POINT ( 'NONE',  ( 0.0000000000000000000, 9.000000000000008900, 0.0000000000000000000 ) ) ;
#251 = EDGE_CURVE ( 'NONE', #47, #239, #1, .T. ) ;
#252 = CARTESIAN_POINT ( 'NONE',  ( 2.265596578422605400E-015, 9.500000000000000000, 18.50000000000001800 ) ) ;
#253 = CARTESIAN_POINT ( 'NONE',  ( 2.326828918379971000E-015, 0.4999999999999935100, -19.00000000000000000 ) ) ;
#254 = SURFACE_STYLE_FILL_AREA ( #210 ) ;
#255 = PRESENTATION_LAYER_ASSIGNMENT (  '', '', ( #277 ) ) ;
#256 = ORIENTED_EDGE ( 'NONE', *, *, #251, .T. ) ;
#257 = CARTESIAN_POINT ( 'NONE',  ( 0.0000000000000000000, 0.0000000000000000000, 0.0000000000000000000 ) ) ;
#258 = DIRECTION ( 'NONE',  ( -0.0000000000000000000, -1.000000000000000000, -0.0000000000000000000 ) ) ;
#259 = CARTESIAN_POINT ( 'NONE',  ( 0.0000000000000000000, 9.000000000000008900, 15.00000000000000200 ) ) ;
#260 = CARTESIAN_POINT ( 'NONE',  ( 0.0000000000000000000, 0.0000000000000000000, 0.0000000000000000000 ) ) ;
#261 = VECTOR ( 'NONE', #219, 1000.000000000000100 ) ;
#262 = ORIENTED_EDGE ( 'NONE', *, *, #300, .F. ) ;
#263 = CARTESIAN_POINT ( 'NONE',  ( 0.0000000000000000000, 0.0000000000000000000, 18.50000000000000400 ) ) ;
#264 = CARTESIAN_POINT ( 'NONE',  ( 0.0000000000000000000, 0.0000000000000000000, 0.0000000000000000000 ) ) ;
#265 = EDGE_LOOP ( 'NONE', ( #55, #133, #350, #209 ) ) ;
#266 = CARTESIAN_POINT ( 'NONE',  ( 0.0000000000000000000, 9.500000000000000000, 0.0000000000000000000 ) ) ;
#267 =( NAMED_UNIT ( * ) PLANE_ANGLE_UNIT ( ) SI_UNIT ( $, .RADIAN. ) );
#268 = CONICAL_SURFACE ( 'NONE', #225, 15.00000000000000200, 0.7853981633974570500 ) ;
#269 = ORIENTED_EDGE ( 'NONE', *, *, #327, .T. ) ;
#270 = AXIS2_PLACEMENT_3D ( 'NONE', #257, #56, #111 ) ;
#271 = LINE ( 'NONE', #358, #108 ) ;
#272 = ORIENTED_EDGE ( 'NONE', *, *, #78, .F. ) ;
#273 = ADVANCED_FACE ( 'NONE', ( #73 ), #153, .T. ) ;
#274 = PRODUCT_DEFINITION ( 'UNKNOWN', '', #22, #249 ) ;
#275 = CONICAL_SURFACE ( 'NONE', #160, 18.50000000000001800, 0.7853981633974380600 ) ;
#276 = CARTESIAN_POINT ( 'NONE',  ( 0.0000000000000000000, 0.4999999999999935100, 0.0000000000000000000 ) ) ;
#277 = STYLED_ITEM ( 'NONE', ( #178 ), #53 ) ;
#278 = DIRECTION ( 'NONE',  ( 0.0000000000000000000, 0.0000000000000000000, 1.000000000000000000 ) ) ;
#279 = CARTESIAN_POINT ( 'NONE',  ( 0.0000000000000000000, 9.500000000000000000, 0.0000000000000000000 ) ) ;
#280 = VERTEX_POINT ( 'NONE', #226 ) ;
#281 = DIRECTION ( 'NONE',  ( -0.0000000000000000000, -1.000000000000000000, -0.0000000000000000000 ) ) ;
#282 = SURFACE_STYLE_USAGE ( .BOTH. , #245 ) ;
#283 = DIRECTION ( 'NONE',  ( -0.0000000000000000000, -1.000000000000000000, -0.0000000000000000000 ) ) ;
#284 =( GEOMETRIC_REPRESENTATION_CONTEXT ( 3 ) GLOBAL_UNCERTAINTY_ASSIGNED_CONTEXT ( ( #43 ) ) GLOBAL_UNIT_ASSIGNED_CONTEXT ( ( #9, #267, #127 ) ) REPRESENTATION_CONTEXT ( 'NONE', 'WORKASPACE' ) );
#285 = CARTESIAN_POINT ( 'NONE',  ( 2.326828918379971000E-015, 9.500000000000000000, 19.00000000000000000 ) ) ;
#286 = CARTESIAN_POINT ( 'NONE',  ( 0.0000000000000000000, 0.4999999999999935100, 0.0000000000000000000 ) ) ;
#287 = PRODUCT_RELATED_PRODUCT_CATEGORY ( 'part', '', ( #217 ) ) ;
#288 = EDGE_CURVE ( 'NONE', #280, #28, #356, .T. ) ;
#289 = SURFACE_STYLE_USAGE ( .BOTH. , #231 ) ;
#290 = EDGE_CURVE ( 'NONE', #28, #239, #213, .T. ) ;
#291 = DIRECTION ( 'NONE',  ( 0.0000000000000000000, -1.000000000000000000, 0.0000000000000000000 ) ) ;
#292 = VECTOR ( 'NONE', #172, 1000.000000000000100 ) ;
#293 = APPLICATION_CONTEXT ( 'automotive_design' ) ;
#294 = SURFACE_STYLE_FILL_AREA ( #364 ) ;
#295 = ORIENTED_EDGE ( 'NONE', *, *, #8, .T. ) ;
#296 = EDGE_LOOP ( 'NONE', ( #159, #97, #167, #6 ) ) ;
#297 = ADVANCED_FACE ( 'NONE', ( #17 ), #72, .F. ) ;
#298 = FACE_OUTER_BOUND ( 'NONE', #296, .T. ) ;
#299 = ORIENTED_EDGE ( 'NONE', *, *, #151, .F. ) ;
#300 = EDGE_CURVE ( 'NONE', #121, #34, #62, .T. ) ;
#301 = CARTESIAN_POINT ( 'NONE',  ( 0.0000000000000000000, 0.4999999999999935100, 19.00000000000000000 ) ) ;
#302 = FACE_OUTER_BOUND ( 'NONE', #360, .T. ) ;
#303 = EDGE_LOOP ( 'NONE', ( #18, #234, #299, #247 ) ) ;
#304 = DIRECTION ( 'NONE',  ( 0.0000000000000000000, 0.0000000000000000000, 1.000000000000000000 ) ) ;
#305 = FILL_AREA_STYLE_COLOUR ( '', #244 ) ;
#306 = DIRECTION ( 'NONE',  ( 0.0000000000000000000, 1.000000000000000000, 0.0000000000000000000 ) ) ;
#307 = ORIENTED_EDGE ( 'NONE', *, *, #144, .F. ) ;
#308 = DIRECTION ( 'NONE',  ( -0.0000000000000000000, -1.000000000000000000, -0.0000000000000000000 ) ) ;
#309 = DIRECTION ( 'NONE',  ( 0.0000000000000000000, 0.0000000000000000000, 1.000000000000000000 ) ) ;
#310 = DIRECTION ( 'NONE',  ( 0.0000000000000000000, 0.7071067811865451300, 0.7071067811865500200 ) ) ;
#311 = DIRECTION ( 'NONE',  ( 0.0000000000000000000, 0.0000000000000000000, 1.000000000000000000 ) ) ;
#312 = CONICAL_SURFACE ( 'NONE', #232, 19.00000000000000000, 0.7853981633974517200 ) ;
#313 = CARTESIAN_POINT ( 'NONE',  ( 0.0000000000000000000, 9.500000000000000000, -18.50000000000001800 ) ) ;
#314 = EDGE_LOOP ( 'NONE', ( #221, #96 ) ) ;
#315 = EDGE_CURVE ( 'NONE', #34, #121, #41, .T. ) ;
#316 = ORIENTED_EDGE ( 'NONE', *, *, #21, .T. ) ;
#317 = VERTEX_POINT ( 'NONE', #14 ) ;
#318 = CARTESIAN_POINT ( 'NONE',  ( 0.0000000000000000000, 0.0000000000000000000, 0.0000000000000000000 ) ) ;
#319 = DIRECTION ( 'NONE',  ( 0.0000000000000000000, 0.0000000000000000000, 1.000000000000000000 ) ) ;
#320 = AXIS2_PLACEMENT_3D ( 'NONE', #223, #143, #27 ) ;
#321 = DIRECTION ( 'NONE',  ( 0.0000000000000000000, 1.000000000000000000, 0.0000000000000000000 ) ) ;
#322 = LINE ( 'NONE', #253, #292 ) ;
#323 = EDGE_LOOP ( 'NONE', ( #164, #339, #100, #155 ) ) ;
#324 = CIRCLE ( 'NONE', #101, 18.50000000000001800 ) ;
#325 = ORIENTED_EDGE ( 'NONE', *, *, #198, .F. ) ;
#326 = ORIENTED_EDGE ( 'NONE', *, *, #46, .T. ) ;
#327 = EDGE_CURVE ( 'NONE', #168, #241, #324, .T. ) ;
#328 = LINE ( 'NONE', #252, #261 ) ;
#329 = EDGE_LOOP ( 'NONE', ( #229, #161 ) ) ;
#330 = CARTESIAN_POINT ( 'NONE',  ( 1.836970198721030000E-015, 0.0000000000000000000, 15.00000000000000200 ) ) ;
#331 = EDGE_CURVE ( 'NONE', #241, #317, #348, .T. ) ;
#332 = CARTESIAN_POINT ( 'NONE',  ( 0.0000000000000000000, 0.0000000000000000000, -15.00000000000000200 ) ) ;
#333 = EDGE_CURVE ( 'NONE', #37, #317, #165, .T. ) ;
#334 = EDGE_LOOP ( 'NONE', ( #354, #256, #200, #355 ) ) ;
#335 = DIRECTION ( 'NONE',  ( -0.0000000000000000000, -1.000000000000000000, -0.0000000000000000000 ) ) ;
#336 = DIRECTION ( 'NONE',  ( 0.0000000000000000000, 0.0000000000000000000, 1.000000000000000000 ) ) ;
#337 = CARTESIAN_POINT ( 'NONE',  ( 0.0000000000000000000, 9.500000000000000000, 0.0000000000000000000 ) ) ;
#338 = FACE_OUTER_BOUND ( 'NONE', #20, .T. ) ;
#339 = ORIENTED_EDGE ( 'NONE', *, *, #46, .F. ) ;
#340 = DIRECTION ( 'NONE',  ( -0.0000000000000000000, 1.000000000000000000, -0.0000000000000000000 ) ) ;
#341 = CARTESIAN_POINT ( 'NONE',  ( 2.296212748401287600E-015, 0.0000000000000000000, -18.50000000000000400 ) ) ;
#342 = CIRCLE ( 'NONE', #162, 15.00000000000000200 ) ;
#343 =( LENGTH_UNIT ( ) NAMED_UNIT ( * ) SI_UNIT ( .MILLI., .METRE. ) );
#344 = ORIENTED_EDGE ( 'NONE', *, *, #144, .T. ) ;
#345 = DIRECTION ( 'NONE',  ( 0.0000000000000000000, 0.0000000000000000000, 1.000000000000000000 ) ) ;
#346 =( GEOMETRIC_REPRESENTATION_CONTEXT ( 3 ) GLOBAL_UNCERTAINTY_ASSIGNED_CONTEXT ( ( #38 ) ) GLOBAL_UNIT_ASSIGNED_CONTEXT ( ( #195, #114, #359 ) ) REPRESENTATION_CONTEXT ( 'NONE', 'WORKASPACE' ) );
#347 = FILL_AREA_STYLE_COLOUR ( '', #31 ) ;
#348 = LINE ( 'NONE', #313, #118 ) ;
#349 = CYLINDRICAL_SURFACE ( 'NONE', #45, 15.00000000000000200 ) ;
#350 = ORIENTED_EDGE ( 'NONE', *, *, #75, .T. ) ;
#351 = DIRECTION ( 'NONE',  ( 0.0000000000000000000, 0.0000000000000000000, -1.000000000000000000 ) ) ;
#352 = ADVANCED_FACE ( 'NONE', ( #190 ), #236, .T. ) ;
#353 = CIRCLE ( 'NONE', #237, 18.50000000000001800 ) ;
#354 = ORIENTED_EDGE ( 'NONE', *, *, #192, .F. ) ;
#355 = ORIENTED_EDGE ( 'NONE', *, *, #288, .F. ) ;
#356 = LINE ( 'NONE', #259, #136 ) ;
#357 = EDGE_CURVE ( 'NONE', #163, #179, #15, .T. ) ;
#358 = CARTESIAN_POINT ( 'NONE',  ( 0.0000000000000000000, 9.500000000000000000, -19.00000000000000000 ) ) ;
#359 =( NAMED_UNIT ( * ) SI_UNIT ( $, .STERADIAN. ) SOLID_ANGLE_UNIT ( ) );
#360 = EDGE_LOOP ( 'NONE', ( #344, #104 ) ) ;
#361 = CARTESIAN_POINT ( 'NONE',  ( 0.0000000000000000000, 9.500000000000000000, 15.50000000000000000 ) ) ;
#362 = DIRECTION ( 'NONE',  ( 0.0000000000000000000, 0.0000000000000000000, 1.000000000000000000 ) ) ;
#363 = AXIS2_PLACEMENT_3D ( 'NONE', #63, #180, #227 ) ;
#364 = FILL_AREA_STYLE ('',( #305 ) ) ;
ENDSEC;
END-ISO-10303-21;
