ISO-10303-21;
HEADER;
FILE_DESCRIPTION(('CATIA V5 STEP Exchange'),'2;1');

FILE_NAME('Z:\\Documents\\Work\\Stage Roboplanet\\Doc Travail\\4-STEP\\Arbre moteur.stp','2018-12-04T17:15:55+00:00',('none'),('none'),'Version 5-6 Release 2013','CATIA V5 STEP AP203','none');

FILE_SCHEMA(('CONFIG_CONTROL_DESIGN'));

ENDSEC;
DATA;
#5=PRODUCT('Arbre M6','','',(#2)) ;
#1=APPLICATION_CONTEXT('configuration controlled 3D design of mechanical parts and assemblies') ;
#14=PRODUCT_DEFINITION('',' ',#6,#3) ;
#16=SECURITY_CLASSIFICATION(' ',' ',#15) ;
#15=SECURITY_CLASSIFICATION_LEVEL('unclassified') ;
#47=CARTESIAN_POINT(' ',(0.,0.,0.)) ;
#52=CARTESIAN_POINT('Axis2P3D Location',(0.,49.5,0.)) ;
#57=CARTESIAN_POINT('Line Origine',(0.,48.6224174381,0.479425538604)) ;
#61=CARTESIAN_POINT('Vertex',(-2.45359963175,48.6224174381,0.479425538604)) ;
#63=CARTESIAN_POINT('Vertex',(2.45359963175,48.6224174381,0.479425538604)) ;
#67=CARTESIAN_POINT('Control Point',(-2.45359963175,48.6224174381,0.479425538604)) ;
#68=CARTESIAN_POINT('Control Point',(-2.43169390784,48.6836628166,0.591534451875)) ;
#69=CARTESIAN_POINT('Control Point',(-2.40518728453,48.7624319669,0.693171041471)) ;
#70=CARTESIAN_POINT('Control Point',(-2.3768135211,48.8565449367,0.781332784666)) ;
#71=CARTESIAN_POINT('Control Point',(-2.31113182715,49.1233697374,0.961503287741)) ;
#72=CARTESIAN_POINT('Control Point',(-2.2785833985,49.4489915423,1.02781571972)) ;
#73=CARTESIAN_POINT('Control Point',(-2.2840555986,49.6540560325,1.01711280748)) ;
#74=CARTESIAN_POINT('Control Point',(-2.32959531194,49.9707320727,0.919061195325)) ;
#75=CARTESIAN_POINT('Control Point',(-2.39875373892,50.2185823163,0.713077276377)) ;
#76=CARTESIAN_POINT('Control Point',(-2.42692965582,50.3042722083,0.615026870308)) ;
#77=CARTESIAN_POINT('Control Point',(-2.48546175316,50.4678072468,0.352238443535)) ;
#78=CARTESIAN_POINT('Control Point',(-2.51003069039,50.5241046213,0.0394195940035)) ;
#79=CARTESIAN_POINT('Control Point',(-2.50556175143,50.5138799482,-0.14789682007)) ;
#80=CARTESIAN_POINT('Control Point',(-2.48401678949,50.4626247337,-0.323756887265)) ;
#81=CARTESIAN_POINT('Control Point',(-2.45359963175,50.3775825619,-0.479425538604)) ;
#82=CARTESIAN_POINT('Vertex',(-2.45359963175,50.3775825619,-0.479425538604)) ;
#85=CARTESIAN_POINT('Line Origine',(0.,50.3775825619,-0.479425538604)) ;
#89=CARTESIAN_POINT('Vertex',(2.45359963175,50.3775825619,-0.479425538604)) ;
#93=CARTESIAN_POINT('Control Point',(2.45359963175,48.6224174381,0.479425538604)) ;
#94=CARTESIAN_POINT('Control Point',(2.43169390784,48.6836628166,0.591534451869)) ;
#95=CARTESIAN_POINT('Control Point',(2.40518728453,48.7624319669,0.693171041459)) ;
#96=CARTESIAN_POINT('Control Point',(2.37681352109,48.8565449367,0.781332784674)) ;
#97=CARTESIAN_POINT('Control Point',(2.31113182715,49.1233697374,0.961503287742)) ;
#98=CARTESIAN_POINT('Control Point',(2.2785833985,49.4489915423,1.02781571972)) ;
#99=CARTESIAN_POINT('Control Point',(2.2840555986,49.6540560325,1.01711280748)) ;
#100=CARTESIAN_POINT('Control Point',(2.32959531194,49.9707320727,0.919061195325)) ;
#101=CARTESIAN_POINT('Control Point',(2.39875373892,50.2185823163,0.713077276381)) ;
#102=CARTESIAN_POINT('Control Point',(2.42692965582,50.3042722083,0.615026870303)) ;
#103=CARTESIAN_POINT('Control Point',(2.48546175316,50.4678072468,0.352238443522)) ;
#104=CARTESIAN_POINT('Control Point',(2.51003069039,50.5241046213,0.0394195939791)) ;
#105=CARTESIAN_POINT('Control Point',(2.50556175143,50.5138799482,-0.147896820047)) ;
#106=CARTESIAN_POINT('Control Point',(2.48401678949,50.4626247337,-0.323756887255)) ;
#107=CARTESIAN_POINT('Control Point',(2.45359963175,50.3775825619,-0.479425538604)) ;
#117=CARTESIAN_POINT('Control Point',(-2.45359963175,50.3775825619,-0.479425538604)) ;
#118=CARTESIAN_POINT('Control Point',(-2.43169390784,50.3163371834,-0.591534451864)) ;
#119=CARTESIAN_POINT('Control Point',(-2.40518728454,50.2375680331,-0.693171041451)) ;
#120=CARTESIAN_POINT('Control Point',(-2.37681352109,50.1434550632,-0.78133278468)) ;
#121=CARTESIAN_POINT('Control Point',(-2.31113182715,49.8766302626,-0.961503287744)) ;
#122=CARTESIAN_POINT('Control Point',(-2.2785833985,49.5510084577,-1.02781571972)) ;
#123=CARTESIAN_POINT('Control Point',(-2.2840555986,49.3459439675,-1.01711280748)) ;
#124=CARTESIAN_POINT('Control Point',(-2.32959531194,49.0292679273,-0.919061195327)) ;
#125=CARTESIAN_POINT('Control Point',(-2.39875373892,48.7814176837,-0.713077276385)) ;
#126=CARTESIAN_POINT('Control Point',(-2.42692965582,48.6957277917,-0.615026870297)) ;
#127=CARTESIAN_POINT('Control Point',(-2.48546175316,48.5321927532,-0.352238443528)) ;
#128=CARTESIAN_POINT('Control Point',(-2.51003069039,48.4758953787,-0.0394195940019)) ;
#129=CARTESIAN_POINT('Control Point',(-2.50556175143,48.4861200518,0.147896820069)) ;
#130=CARTESIAN_POINT('Control Point',(-2.48401678949,48.5373752663,0.323756887265)) ;
#131=CARTESIAN_POINT('Control Point',(-2.45359963175,48.6224174381,0.479425538604)) ;
#134=CARTESIAN_POINT('Control Point',(2.45359963175,50.3775825619,-0.479425538604)) ;
#135=CARTESIAN_POINT('Control Point',(2.43169390784,50.3163371834,-0.59153445187)) ;
#136=CARTESIAN_POINT('Control Point',(2.40518728453,50.2375680331,-0.693171041461)) ;
#137=CARTESIAN_POINT('Control Point',(2.37681352109,50.1434550633,-0.781332784673)) ;
#138=CARTESIAN_POINT('Control Point',(2.31113182715,49.8766302626,-0.961503287743)) ;
#139=CARTESIAN_POINT('Control Point',(2.2785833985,49.5510084577,-1.02781571972)) ;
#140=CARTESIAN_POINT('Control Point',(2.2840555986,49.3459439675,-1.01711280748)) ;
#141=CARTESIAN_POINT('Control Point',(2.32959531194,49.0292679273,-0.91906119533)) ;
#142=CARTESIAN_POINT('Control Point',(2.39875373891,48.7814176837,-0.7130772764)) ;
#143=CARTESIAN_POINT('Control Point',(2.42692965583,48.6957277916,-0.615026870278)) ;
#144=CARTESIAN_POINT('Control Point',(2.48546175316,48.5321927532,-0.352238443516)) ;
#145=CARTESIAN_POINT('Control Point',(2.51003069039,48.4758953787,-0.0394195940021)) ;
#146=CARTESIAN_POINT('Control Point',(2.50556175143,48.4861200518,0.147896820069)) ;
#147=CARTESIAN_POINT('Control Point',(2.48401678949,48.5373752663,0.323756887265)) ;
#148=CARTESIAN_POINT('Control Point',(2.45359963175,48.6224174381,0.479425538604)) ;
#157=CARTESIAN_POINT('Axis2P3D Location',(0.,28.5000000001,0.)) ;
#162=CARTESIAN_POINT('Line Origine',(-1.19856384651,50.5,-2.19395640473)) ;
#166=CARTESIAN_POINT('Vertex',(-1.19856384651,56.,-2.19395640473)) ;
#168=CARTESIAN_POINT('Vertex',(-1.19856384651,44.,-2.19395640473)) ;
#171=CARTESIAN_POINT('Axis2P3D Location',(0.,44.,0.)) ;
#175=CARTESIAN_POINT('Vertex',(1.19856384651,44.,2.19395640473)) ;
#178=CARTESIAN_POINT('Line Origine',(1.19856384651,50.5,2.19395640473)) ;
#182=CARTESIAN_POINT('Vertex',(1.19856384651,56.,2.19395640473)) ;
#185=CARTESIAN_POINT('Axis2P3D Location',(0.,56.,0.)) ;
#201=CARTESIAN_POINT('Axis2P3D Location',(0.,44.,2.5)) ;
#206=CARTESIAN_POINT('Axis2P3D Location',(0.,44.,0.)) ;
#210=CARTESIAN_POINT('Vertex',(-1.43827661581,44.,-2.63274768567)) ;
#212=CARTESIAN_POINT('Vertex',(1.43827661581,44.,2.63274768567)) ;
#215=CARTESIAN_POINT('Axis2P3D Location',(0.,44.,0.)) ;
#224=CARTESIAN_POINT('Axis2P3D Location',(0.,44.,0.)) ;
#234=CARTESIAN_POINT('Axis2P3D Location',(0.,28.5000000001,0.)) ;
#239=CARTESIAN_POINT('Line Origine',(1.43827661581,22.,2.63274768567)) ;
#243=CARTESIAN_POINT('Vertex',(1.43827661581,1.,2.63274768567)) ;
#246=CARTESIAN_POINT('Line Origine',(-1.43827661581,22.,-2.63274768567)) ;
#250=CARTESIAN_POINT('Vertex',(-1.43827661581,1.,-2.63274768567)) ;
#253=CARTESIAN_POINT('Axis2P3D Location',(0.,1.,0.)) ;
#265=CARTESIAN_POINT('Axis2P3D Location',(5.55111512313E-016,-2.,-1.11022302463E-016)) ;
#270=CARTESIAN_POINT('Line Origine',(-1.19856384651,0.5,-2.19395640473)) ;
#274=CARTESIAN_POINT('Vertex',(-0.958851077208,0.,-1.75516512378)) ;
#277=CARTESIAN_POINT('Axis2P3D Location',(1.11022302463E-016,-4.4408920985E-016,-3.33066907388E-016)) ;
#281=CARTESIAN_POINT('Vertex',(0.958851077208,0.,1.75516512378)) ;
#284=CARTESIAN_POINT('Line Origine',(1.19856384651,0.5,2.19395640473)) ;
#296=CARTESIAN_POINT('Axis2P3D Location',(0.,-2.,1.21430643318E-016)) ;
#301=CARTESIAN_POINT('Axis2P3D Location',(-4.4408920985E-016,-2.22044604925E-016,1.28369537222E-016)) ;
#306=CARTESIAN_POINT('Axis2P3D Location',(-6.66133814775E-016,1.,1.31838984174E-016)) ;
#318=CARTESIAN_POINT('Axis2P3D Location',(0.,0.,3.)) ;
#328=CARTESIAN_POINT('Axis2P3D Location',(0.,57.,0.)) ;
#333=CARTESIAN_POINT('Axis2P3D Location',(0.,57.,1.18701400394E-016)) ;
#337=CARTESIAN_POINT('Vertex',(0.719138307906,57.,1.31637384284)) ;
#339=CARTESIAN_POINT('Vertex',(-0.719138307906,57.,-1.31637384284)) ;
#342=CARTESIAN_POINT('Axis2P3D Location',(0.,57.,1.18701400394E-016)) ;
#352=CARTESIAN_POINT('Axis2P3D Location',(1.66533453694E-016,58.5,2.16840434497E-016)) ;
#357=CARTESIAN_POINT('Line Origine',(0.958851077208,56.5,1.75516512378)) ;
#362=CARTESIAN_POINT('Axis2P3D Location',(-6.66133814775E-016,56.,-3.46944695195E-017)) ;
#367=CARTESIAN_POINT('Line Origine',(-0.958851077208,56.5,-1.75516512378)) ;
#379=CARTESIAN_POINT('Axis2P3D Location',(6.93889390391E-016,58.5,-5.55111512313E-016)) ;
#408=CARTESIAN_POINT('Axis2P3D Location',(0.,9.,0.)) ;
#412=CARTESIAN_POINT('Vertex',(2.2,9.,-2.03960780544)) ;
#414=CARTESIAN_POINT('Vertex',(2.2,9.,2.03960780544)) ;
#417=CARTESIAN_POINT('Line Origine',(2.2,22.,2.03960780544)) ;
#421=CARTESIAN_POINT('Vertex',(2.2,15.,2.03960780544)) ;
#424=CARTESIAN_POINT('Axis2P3D Location',(0.,15.,0.)) ;
#428=CARTESIAN_POINT('Vertex',(2.2,15.,-2.03960780544)) ;
#431=CARTESIAN_POINT('Line Origine',(2.2,22.,-2.03960780544)) ;
#443=CARTESIAN_POINT('Axis2P3D Location',(2.2,15.,0.)) ;
#448=CARTESIAN_POINT('Line Origine',(2.2,15.,0.)) ;
#458=CARTESIAN_POINT('Axis2P3D Location',(2.2,15.,0.)) ;
#463=CARTESIAN_POINT('Line Origine',(2.2,9.,0.)) ;
#475=CARTESIAN_POINT('Axis2P3D Location',(4.32989501953,9.,0.)) ;
#53=DIRECTION('Axis2P3D Direction',(-1.,0.,-0.)) ;
#54=DIRECTION('Axis2P3D XDirection',(0.,0.87758256189,-0.479425538604)) ;
#58=DIRECTION('Vector Direction',(-1.,0.,0.)) ;
#86=DIRECTION('Vector Direction',(-1.,0.,0.)) ;
#158=DIRECTION('Axis2P3D Direction',(0.,1.,0.)) ;
#159=DIRECTION('Axis2P3D XDirection',(0.479425538604,-0.,0.87758256189)) ;
#163=DIRECTION('Vector Direction',(0.,1.,0.)) ;
#172=DIRECTION('Axis2P3D Direction',(0.,1.,0.)) ;
#179=DIRECTION('Vector Direction',(0.,1.,0.)) ;
#186=DIRECTION('Axis2P3D Direction',(0.,1.,0.)) ;
#202=DIRECTION('Axis2P3D Direction',(0.,1.,0.)) ;
#203=DIRECTION('Axis2P3D XDirection',(1.,-0.,0.)) ;
#207=DIRECTION('Axis2P3D Direction',(0.,1.,0.)) ;
#216=DIRECTION('Axis2P3D Direction',(0.,1.,0.)) ;
#225=DIRECTION('Axis2P3D Direction',(0.,1.,0.)) ;
#235=DIRECTION('Axis2P3D Direction',(0.,1.,0.)) ;
#236=DIRECTION('Axis2P3D XDirection',(0.479425538604,-0.,0.87758256189)) ;
#240=DIRECTION('Vector Direction',(0.,1.,0.)) ;
#247=DIRECTION('Vector Direction',(0.,1.,0.)) ;
#254=DIRECTION('Axis2P3D Direction',(0.,1.,0.)) ;
#266=DIRECTION('Axis2P3D Direction',(-2.22044604925E-016,1.,-1.11022302463E-016)) ;
#267=DIRECTION('Axis2P3D XDirection',(0.520296023213,0.,-0.853985976599)) ;
#271=DIRECTION('Vector Direction',(-0.339005049421,0.707106781187,-0.620544580564)) ;
#278=DIRECTION('Axis2P3D Direction',(-2.1126540561E-016,1.,-1.28714701873E-016)) ;
#285=DIRECTION('Vector Direction',(0.339005049421,0.707106781187,0.620544580564)) ;
#297=DIRECTION('Axis2P3D Direction',(-2.22044604925E-016,1.,3.46944695195E-018)) ;
#298=DIRECTION('Axis2P3D XDirection',(0.479425538604,1.31708901597E-016,0.87758256189)) ;
#302=DIRECTION('Axis2P3D Direction',(-1.72467627958E-016,1.,9.42194945706E-017)) ;
#307=DIRECTION('Axis2P3D Direction',(-1.72467627958E-016,1.,9.42194945706E-017)) ;
#319=DIRECTION('Axis2P3D Direction',(0.,1.,0.)) ;
#320=DIRECTION('Axis2P3D XDirection',(1.,-0.,0.)) ;
#329=DIRECTION('Axis2P3D Direction',(0.,1.,0.)) ;
#330=DIRECTION('Axis2P3D XDirection',(1.,-0.,0.)) ;
#334=DIRECTION('Axis2P3D Direction',(0.,1.,0.)) ;
#343=DIRECTION('Axis2P3D Direction',(0.,1.,0.)) ;
#353=DIRECTION('Axis2P3D Direction',(-3.33066907388E-016,-1.,-1.00613961607E-016)) ;
#354=DIRECTION('Axis2P3D XDirection',(0.479425538604,-2.63417803193E-016,0.87758256189)) ;
#358=DIRECTION('Vector Direction',(0.339005049421,-0.707106781187,0.620544580564)) ;
#363=DIRECTION('Axis2P3D Direction',(2.14179998049E-016,1.,-1.17007066209E-016)) ;
#368=DIRECTION('Vector Direction',(-0.339005049421,-0.707106781187,-0.620544580564)) ;
#380=DIRECTION('Axis2P3D Direction',(-4.99600361081E-016,-1.,2.22044604925E-016)) ;
#381=DIRECTION('Axis2P3D XDirection',(0.520296023213,-3.9512670479E-016,-0.853985976599)) ;
#409=DIRECTION('Axis2P3D Direction',(0.,1.,0.)) ;
#418=DIRECTION('Vector Direction',(0.,1.,0.)) ;
#425=DIRECTION('Axis2P3D Direction',(0.,1.,0.)) ;
#432=DIRECTION('Vector Direction',(0.,1.,0.)) ;
#444=DIRECTION('Axis2P3D Direction',(-0.,1.,0.)) ;
#445=DIRECTION('Axis2P3D XDirection',(1.,0.,0.)) ;
#449=DIRECTION('Vector Direction',(0.,0.,-1.)) ;
#459=DIRECTION('Axis2P3D Direction',(1.,0.,0.)) ;
#460=DIRECTION('Axis2P3D XDirection',(0.,-1.,0.)) ;
#464=DIRECTION('Vector Direction',(0.,0.,-1.)) ;
#476=DIRECTION('Axis2P3D Direction',(-0.,-1.,-0.)) ;
#477=DIRECTION('Axis2P3D XDirection',(-1.,0.,0.)) ;
#48=AXIS2_PLACEMENT_3D(' ',#47,$,$) ;
#55=AXIS2_PLACEMENT_3D('Cylinder Axis2P3D',#52,#53,#54) ;
#160=AXIS2_PLACEMENT_3D('Cylinder Axis2P3D',#157,#158,#159) ;
#173=AXIS2_PLACEMENT_3D('Circle Axis2P3D',#171,#172,$) ;
#187=AXIS2_PLACEMENT_3D('Circle Axis2P3D',#185,#186,$) ;
#204=AXIS2_PLACEMENT_3D('Plane Axis2P3D',#201,#202,#203) ;
#208=AXIS2_PLACEMENT_3D('Circle Axis2P3D',#206,#207,$) ;
#217=AXIS2_PLACEMENT_3D('Circle Axis2P3D',#215,#216,$) ;
#226=AXIS2_PLACEMENT_3D('Circle Axis2P3D',#224,#225,$) ;
#237=AXIS2_PLACEMENT_3D('Cylinder Axis2P3D',#234,#235,#236) ;
#255=AXIS2_PLACEMENT_3D('Circle Axis2P3D',#253,#254,$) ;
#268=AXIS2_PLACEMENT_3D('Cone Axis2P3D',#265,#266,#267) ;
#279=AXIS2_PLACEMENT_3D('Circle Axis2P3D',#277,#278,$) ;
#299=AXIS2_PLACEMENT_3D('Cone Axis2P3D',#296,#297,#298) ;
#303=AXIS2_PLACEMENT_3D('Circle Axis2P3D',#301,#302,$) ;
#308=AXIS2_PLACEMENT_3D('Circle Axis2P3D',#306,#307,$) ;
#321=AXIS2_PLACEMENT_3D('Plane Axis2P3D',#318,#319,#320) ;
#331=AXIS2_PLACEMENT_3D('Plane Axis2P3D',#328,#329,#330) ;
#335=AXIS2_PLACEMENT_3D('Circle Axis2P3D',#333,#334,$) ;
#344=AXIS2_PLACEMENT_3D('Circle Axis2P3D',#342,#343,$) ;
#355=AXIS2_PLACEMENT_3D('Cone Axis2P3D',#352,#353,#354) ;
#364=AXIS2_PLACEMENT_3D('Circle Axis2P3D',#362,#363,$) ;
#382=AXIS2_PLACEMENT_3D('Cone Axis2P3D',#379,#380,#381) ;
#410=AXIS2_PLACEMENT_3D('Circle Axis2P3D',#408,#409,$) ;
#426=AXIS2_PLACEMENT_3D('Circle Axis2P3D',#424,#425,$) ;
#446=AXIS2_PLACEMENT_3D('Plane Axis2P3D',#443,#444,#445) ;
#461=AXIS2_PLACEMENT_3D('Plane Axis2P3D',#458,#459,#460) ;
#478=AXIS2_PLACEMENT_3D('Plane Axis2P3D',#475,#476,#477) ;
#40=PRODUCT_DEFINITION_SHAPE(' ',' ',#14) ;
#31=APPROVAL_PERSON_ORGANIZATION(#25,#21,#19) ;
#25=PERSON_AND_ORGANIZATION(#22,#23) ;
#22=PERSON(' ',' ',' ',$,$,$) ;
#23=ORGANIZATION(' ',' ',' ') ;
#21=APPROVAL(#20,' ') ;
#20=APPROVAL_STATUS('not_yet_approved') ;
#19=APPROVAL_ROLE('APPROVER') ;
#13=DATE_AND_TIME(#11,#12) ;
#12=LOCAL_TIME(18,15,55.,#10) ;
#10=COORDINATED_UNIVERSAL_TIME_OFFSET(0,0,.AHEAD.) ;
#110=ORIENTED_EDGE('',*,*,#65,.F.) ;
#111=ORIENTED_EDGE('',*,*,#84,.T.) ;
#112=ORIENTED_EDGE('',*,*,#91,.T.) ;
#113=ORIENTED_EDGE('',*,*,#108,.F.) ;
#151=ORIENTED_EDGE('',*,*,#91,.F.) ;
#152=ORIENTED_EDGE('',*,*,#132,.T.) ;
#153=ORIENTED_EDGE('',*,*,#65,.T.) ;
#154=ORIENTED_EDGE('',*,*,#149,.F.) ;
#191=ORIENTED_EDGE('',*,*,#170,.T.) ;
#192=ORIENTED_EDGE('',*,*,#177,.T.) ;
#193=ORIENTED_EDGE('',*,*,#184,.F.) ;
#194=ORIENTED_EDGE('',*,*,#189,.F.) ;
#197=ORIENTED_EDGE('',*,*,#132,.F.) ;
#198=ORIENTED_EDGE('',*,*,#84,.F.) ;
#221=ORIENTED_EDGE('',*,*,#214,.T.) ;
#222=ORIENTED_EDGE('',*,*,#219,.T.) ;
#230=ORIENTED_EDGE('',*,*,#228,.F.) ;
#231=ORIENTED_EDGE('',*,*,#177,.F.) ;
#259=ORIENTED_EDGE('',*,*,#245,.F.) ;
#260=ORIENTED_EDGE('',*,*,#214,.F.) ;
#261=ORIENTED_EDGE('',*,*,#252,.T.) ;
#262=ORIENTED_EDGE('',*,*,#257,.T.) ;
#290=ORIENTED_EDGE('',*,*,#276,.T.) ;
#291=ORIENTED_EDGE('',*,*,#283,.T.) ;
#292=ORIENTED_EDGE('',*,*,#288,.F.) ;
#293=ORIENTED_EDGE('',*,*,#257,.F.) ;
#312=ORIENTED_EDGE('',*,*,#288,.T.) ;
#313=ORIENTED_EDGE('',*,*,#305,.T.) ;
#314=ORIENTED_EDGE('',*,*,#276,.F.) ;
#315=ORIENTED_EDGE('',*,*,#310,.F.) ;
#324=ORIENTED_EDGE('',*,*,#305,.F.) ;
#325=ORIENTED_EDGE('',*,*,#283,.F.) ;
#348=ORIENTED_EDGE('',*,*,#341,.T.) ;
#349=ORIENTED_EDGE('',*,*,#346,.T.) ;
#373=ORIENTED_EDGE('',*,*,#361,.T.) ;
#374=ORIENTED_EDGE('',*,*,#366,.T.) ;
#375=ORIENTED_EDGE('',*,*,#371,.F.) ;
#376=ORIENTED_EDGE('',*,*,#341,.F.) ;
#385=ORIENTED_EDGE('',*,*,#371,.T.) ;
#386=ORIENTED_EDGE('',*,*,#189,.T.) ;
#387=ORIENTED_EDGE('',*,*,#361,.F.) ;
#388=ORIENTED_EDGE('',*,*,#346,.F.) ;
#392=ORIENTED_EDGE('',*,*,#184,.T.) ;
#393=ORIENTED_EDGE('',*,*,#228,.T.) ;
#394=ORIENTED_EDGE('',*,*,#170,.F.) ;
#395=ORIENTED_EDGE('',*,*,#366,.F.) ;
#398=ORIENTED_EDGE('',*,*,#108,.T.) ;
#399=ORIENTED_EDGE('',*,*,#149,.T.) ;
#403=ORIENTED_EDGE('',*,*,#252,.F.) ;
#404=ORIENTED_EDGE('',*,*,#219,.F.) ;
#405=ORIENTED_EDGE('',*,*,#245,.T.) ;
#406=ORIENTED_EDGE('',*,*,#310,.T.) ;
#437=ORIENTED_EDGE('',*,*,#416,.T.) ;
#438=ORIENTED_EDGE('',*,*,#423,.F.) ;
#439=ORIENTED_EDGE('',*,*,#430,.T.) ;
#440=ORIENTED_EDGE('',*,*,#435,.T.) ;
#454=ORIENTED_EDGE('',*,*,#430,.F.) ;
#455=ORIENTED_EDGE('',*,*,#452,.T.) ;
#469=ORIENTED_EDGE('',*,*,#423,.T.) ;
#470=ORIENTED_EDGE('',*,*,#467,.T.) ;
#471=ORIENTED_EDGE('',*,*,#435,.F.) ;
#472=ORIENTED_EDGE('',*,*,#452,.F.) ;
#481=ORIENTED_EDGE('',*,*,#416,.F.) ;
#482=ORIENTED_EDGE('',*,*,#467,.F.) ;
#199=FACE_BOUND('',#196,.T.) ;
#232=FACE_BOUND('',#229,.T.) ;
#400=FACE_BOUND('',#397,.T.) ;
#441=FACE_BOUND('',#436,.T.) ;
#51=CLOSED_SHELL('Closed Shell',(#115,#156,#200,#233,#264,#295,#317,#327,#351,#378,#390,#401,#442,#457,#474,#484)) ;
#59=VECTOR('Line Direction',#58,1.) ;
#87=VECTOR('Line Direction',#86,1.) ;
#164=VECTOR('Line Direction',#163,1.) ;
#180=VECTOR('Line Direction',#179,1.) ;
#241=VECTOR('Line Direction',#240,1.) ;
#248=VECTOR('Line Direction',#247,1.) ;
#272=VECTOR('Line Direction',#271,1.) ;
#286=VECTOR('Line Direction',#285,1.) ;
#359=VECTOR('Line Direction',#358,1.) ;
#369=VECTOR('Line Direction',#368,1.) ;
#419=VECTOR('Line Direction',#418,1.) ;
#433=VECTOR('Line Direction',#432,1.) ;
#450=VECTOR('Line Direction',#449,1.) ;
#465=VECTOR('Line Direction',#464,1.) ;
#486=ADVANCED_BREP_SHAPE_REPRESENTATION('NONE',(#485),#46) ;
#49=SHAPE_REPRESENTATION(' ',(#48),#46) ;
#115=ADVANCED_FACE('Corps principal',(#114),#56,.F.) ;
#156=ADVANCED_FACE('Corps principal',(#155),#56,.F.) ;
#200=ADVANCED_FACE('Corps principal',(#195,#199),#161,.T.) ;
#233=ADVANCED_FACE('Corps principal',(#223,#232),#205,.T.) ;
#264=ADVANCED_FACE('Corps principal',(#263),#238,.T.) ;
#295=ADVANCED_FACE('Corps principal',(#294),#269,.T.) ;
#317=ADVANCED_FACE('Corps principal',(#316),#300,.T.) ;
#327=ADVANCED_FACE('Corps principal',(#326),#322,.F.) ;
#351=ADVANCED_FACE('Corps principal',(#350),#332,.T.) ;
#378=ADVANCED_FACE('Corps principal',(#377),#356,.T.) ;
#390=ADVANCED_FACE('Corps principal',(#389),#383,.T.) ;
#401=ADVANCED_FACE('Corps principal',(#396,#400),#161,.T.) ;
#442=ADVANCED_FACE('Corps principal',(#407,#441),#238,.T.) ;
#457=ADVANCED_FACE('Corps principal',(#456),#447,.F.) ;
#474=ADVANCED_FACE('Corps principal',(#473),#462,.T.) ;
#484=ADVANCED_FACE('Corps principal',(#483),#479,.F.) ;
#4=APPLICATION_PROTOCOL_DEFINITION('international standard','config_control_design',1994,#1) ;
#32=APPROVAL_DATE_TIME(#13,#21) ;
#66=B_SPLINE_CURVE_WITH_KNOTS('',5,(#67,#68,#69,#70,#71,#72,#73,#74,#75,#76,#77,#78,#79,#80,#81),.UNSPECIFIED.,.F.,.U.,(6,3,3,3,6),(0.,0.916495105192,2.29317077906,3.21766023906,4.49025804437),.UNSPECIFIED.) ;
#92=B_SPLINE_CURVE_WITH_KNOTS('',5,(#93,#94,#95,#96,#97,#98,#99,#100,#101,#102,#103,#104,#105,#106,#107),.UNSPECIFIED.,.F.,.U.,(6,3,3,3,6),(0.,0.91649510514,2.293170779,3.21766023898,4.49025804438),.UNSPECIFIED.) ;
#116=B_SPLINE_CURVE_WITH_KNOTS('',5,(#117,#118,#119,#120,#121,#122,#123,#124,#125,#126,#127,#128,#129,#130,#131),.UNSPECIFIED.,.F.,.U.,(6,3,3,3,6),(0.,0.916495105104,2.29317077897,3.21766023893,4.49025804424),.UNSPECIFIED.) ;
#133=B_SPLINE_CURVE_WITH_KNOTS('',5,(#134,#135,#136,#137,#138,#139,#140,#141,#142,#143,#144,#145,#146,#147,#148),.UNSPECIFIED.,.F.,.U.,(6,3,3,3,6),(0.,0.916495105148,2.29317077901,3.21766023889,4.4902580442),.UNSPECIFIED.) ;
#485=MANIFOLD_SOLID_BREP('Corps principal',#51) ;
#11=CALENDAR_DATE(2018,4,12) ;
#30=CC_DESIGN_APPROVAL(#21,(#16,#6,#14)) ;
#18=CC_DESIGN_DATE_AND_TIME_ASSIGNMENT(#13,#17,(#16)) ;
#29=CC_DESIGN_DATE_AND_TIME_ASSIGNMENT(#13,#28,(#14)) ;
#17=DATE_TIME_ROLE('classification_date') ;
#28=DATE_TIME_ROLE('creation_date') ;
#27=CC_DESIGN_PERSON_AND_ORGANIZATION_ASSIGNMENT(#25,#26,(#16)) ;
#33=CC_DESIGN_PERSON_AND_ORGANIZATION_ASSIGNMENT(#25,#34,(#6)) ;
#35=CC_DESIGN_PERSON_AND_ORGANIZATION_ASSIGNMENT(#25,#36,(#6,#14)) ;
#37=CC_DESIGN_PERSON_AND_ORGANIZATION_ASSIGNMENT(#25,#38,(#5)) ;
#26=PERSON_AND_ORGANIZATION_ROLE('classification_officer') ;
#34=PERSON_AND_ORGANIZATION_ROLE('design_supplier') ;
#36=PERSON_AND_ORGANIZATION_ROLE('creator') ;
#38=PERSON_AND_ORGANIZATION_ROLE('design_owner') ;
#39=CC_DESIGN_SECURITY_CLASSIFICATION(#16,(#6)) ;
#174=CIRCLE('generated circle',#173,2.5) ;
#188=CIRCLE('generated circle',#187,2.5) ;
#209=CIRCLE('generated circle',#208,3.) ;
#218=CIRCLE('generated circle',#217,3.) ;
#227=CIRCLE('generated circle',#226,2.5) ;
#256=CIRCLE('generated circle',#255,3.) ;
#280=CIRCLE('generated circle',#279,2.) ;
#304=CIRCLE('generated circle',#303,2.) ;
#309=CIRCLE('generated circle',#308,3.) ;
#336=CIRCLE('generated circle',#335,1.5) ;
#345=CIRCLE('generated circle',#344,1.5) ;
#365=CIRCLE('generated circle',#364,2.5) ;
#411=CIRCLE('generated circle',#410,3.) ;
#427=CIRCLE('generated circle',#426,3.) ;
#269=CONICAL_SURFACE('Cone',#268,0.,0.785398163397) ;
#300=CONICAL_SURFACE('Cone',#299,0.,0.785398163397) ;
#356=CONICAL_SURFACE('Cone',#355,0.,0.785398163397) ;
#383=CONICAL_SURFACE('Cone',#382,0.,0.785398163397) ;
#487=SHAPE_REPRESENTATION_RELATIONSHIP(' ',' ',#49,#486) ;
#56=CYLINDRICAL_SURFACE('generated cylinder',#55,1.) ;
#161=CYLINDRICAL_SURFACE('generated cylinder',#160,2.5) ;
#238=CYLINDRICAL_SURFACE('generated cylinder',#237,3.) ;
#3=DESIGN_CONTEXT(' ',#1,'design') ;
#65=EDGE_CURVE('',#62,#64,#60,.F.) ;
#84=EDGE_CURVE('',#62,#83,#66,.T.) ;
#91=EDGE_CURVE('',#83,#90,#88,.F.) ;
#108=EDGE_CURVE('',#64,#90,#92,.T.) ;
#132=EDGE_CURVE('',#83,#62,#116,.T.) ;
#149=EDGE_CURVE('',#90,#64,#133,.T.) ;
#170=EDGE_CURVE('',#167,#169,#165,.F.) ;
#177=EDGE_CURVE('',#169,#176,#174,.T.) ;
#184=EDGE_CURVE('',#183,#176,#181,.F.) ;
#189=EDGE_CURVE('',#167,#183,#188,.T.) ;
#214=EDGE_CURVE('',#211,#213,#209,.T.) ;
#219=EDGE_CURVE('',#213,#211,#218,.T.) ;
#228=EDGE_CURVE('',#176,#169,#227,.T.) ;
#245=EDGE_CURVE('',#213,#244,#242,.F.) ;
#252=EDGE_CURVE('',#211,#251,#249,.F.) ;
#257=EDGE_CURVE('',#251,#244,#256,.T.) ;
#276=EDGE_CURVE('',#251,#275,#273,.F.) ;
#283=EDGE_CURVE('',#275,#282,#280,.T.) ;
#288=EDGE_CURVE('',#244,#282,#287,.F.) ;
#305=EDGE_CURVE('',#282,#275,#304,.T.) ;
#310=EDGE_CURVE('',#244,#251,#309,.T.) ;
#341=EDGE_CURVE('',#338,#340,#336,.T.) ;
#346=EDGE_CURVE('',#340,#338,#345,.T.) ;
#361=EDGE_CURVE('',#338,#183,#360,.T.) ;
#366=EDGE_CURVE('',#183,#167,#365,.T.) ;
#371=EDGE_CURVE('',#340,#167,#370,.T.) ;
#416=EDGE_CURVE('',#413,#415,#411,.F.) ;
#423=EDGE_CURVE('',#422,#415,#420,.F.) ;
#430=EDGE_CURVE('',#422,#429,#427,.T.) ;
#435=EDGE_CURVE('',#429,#413,#434,.F.) ;
#452=EDGE_CURVE('',#422,#429,#451,.T.) ;
#467=EDGE_CURVE('',#415,#413,#466,.T.) ;
#109=EDGE_LOOP('',(#110,#111,#112,#113)) ;
#150=EDGE_LOOP('',(#151,#152,#153,#154)) ;
#190=EDGE_LOOP('',(#191,#192,#193,#194)) ;
#196=EDGE_LOOP('',(#197,#198)) ;
#220=EDGE_LOOP('',(#221,#222)) ;
#229=EDGE_LOOP('',(#230,#231)) ;
#258=EDGE_LOOP('',(#259,#260,#261,#262)) ;
#289=EDGE_LOOP('',(#290,#291,#292,#293)) ;
#311=EDGE_LOOP('',(#312,#313,#314,#315)) ;
#323=EDGE_LOOP('',(#324,#325)) ;
#347=EDGE_LOOP('',(#348,#349)) ;
#372=EDGE_LOOP('',(#373,#374,#375,#376)) ;
#384=EDGE_LOOP('',(#385,#386,#387,#388)) ;
#391=EDGE_LOOP('',(#392,#393,#394,#395)) ;
#397=EDGE_LOOP('',(#398,#399)) ;
#402=EDGE_LOOP('',(#403,#404,#405,#406)) ;
#436=EDGE_LOOP('',(#437,#438,#439,#440)) ;
#453=EDGE_LOOP('',(#454,#455)) ;
#468=EDGE_LOOP('',(#469,#470,#471,#472)) ;
#480=EDGE_LOOP('',(#481,#482)) ;
#114=FACE_OUTER_BOUND('',#109,.T.) ;
#155=FACE_OUTER_BOUND('',#150,.T.) ;
#195=FACE_OUTER_BOUND('',#190,.T.) ;
#223=FACE_OUTER_BOUND('',#220,.T.) ;
#263=FACE_OUTER_BOUND('',#258,.T.) ;
#294=FACE_OUTER_BOUND('',#289,.T.) ;
#316=FACE_OUTER_BOUND('',#311,.T.) ;
#326=FACE_OUTER_BOUND('',#323,.T.) ;
#350=FACE_OUTER_BOUND('',#347,.T.) ;
#377=FACE_OUTER_BOUND('',#372,.T.) ;
#389=FACE_OUTER_BOUND('',#384,.T.) ;
#396=FACE_OUTER_BOUND('',#391,.T.) ;
#407=FACE_OUTER_BOUND('',#402,.T.) ;
#456=FACE_OUTER_BOUND('',#453,.T.) ;
#473=FACE_OUTER_BOUND('',#468,.T.) ;
#483=FACE_OUTER_BOUND('',#480,.T.) ;
#45=UNCERTAINTY_MEASURE_WITH_UNIT(LENGTH_MEASURE(0.005),#41,'distance_accuracy_value','CONFUSED CURVE UNCERTAINTY') ;
#60=LINE('Line',#57,#59) ;
#88=LINE('Line',#85,#87) ;
#165=LINE('Line',#162,#164) ;
#181=LINE('Line',#178,#180) ;
#242=LINE('Line',#239,#241) ;
#249=LINE('Line',#246,#248) ;
#273=LINE('Line',#270,#272) ;
#287=LINE('Line',#284,#286) ;
#360=LINE('Line',#357,#359) ;
#370=LINE('Line',#367,#369) ;
#420=LINE('Line',#417,#419) ;
#434=LINE('Line',#431,#433) ;
#451=LINE('Line',#448,#450) ;
#466=LINE('Line',#463,#465) ;
#2=MECHANICAL_CONTEXT(' ',#1,'mechanical') ;
#24=PERSONAL_ADDRESS(' ',' ',' ',' ',' ',' ',' ',' ',' ',' ',' ',' ',(#22),' ') ;
#205=PLANE('',#204) ;
#322=PLANE('',#321) ;
#332=PLANE('',#331) ;
#447=PLANE('',#446) ;
#462=PLANE('',#461) ;
#479=PLANE('',#478) ;
#43=PLANE_ANGLE_MEASURE_WITH_UNIT(PLANE_ANGLE_MEASURE(0.0174532925199),#42) ;
#7=PRODUCT_CATEGORY('part',$) ;
#9=PRODUCT_CATEGORY_RELATIONSHIP(' ',' ',#7,#8) ;
#6=PRODUCT_DEFINITION_FORMATION_WITH_SPECIFIED_SOURCE('',' ',#5,.NOT_KNOWN.) ;
#8=PRODUCT_RELATED_PRODUCT_CATEGORY('detail',$,(#5)) ;
#50=SHAPE_DEFINITION_REPRESENTATION(#40,#49) ;
#62=VERTEX_POINT('',#61) ;
#64=VERTEX_POINT('',#63) ;
#83=VERTEX_POINT('',#82) ;
#90=VERTEX_POINT('',#89) ;
#167=VERTEX_POINT('',#166) ;
#169=VERTEX_POINT('',#168) ;
#176=VERTEX_POINT('',#175) ;
#183=VERTEX_POINT('',#182) ;
#211=VERTEX_POINT('',#210) ;
#213=VERTEX_POINT('',#212) ;
#244=VERTEX_POINT('',#243) ;
#251=VERTEX_POINT('',#250) ;
#275=VERTEX_POINT('',#274) ;
#282=VERTEX_POINT('',#281) ;
#338=VERTEX_POINT('',#337) ;
#340=VERTEX_POINT('',#339) ;
#413=VERTEX_POINT('',#412) ;
#415=VERTEX_POINT('',#414) ;
#422=VERTEX_POINT('',#421) ;
#429=VERTEX_POINT('',#428) ;
#41=(LENGTH_UNIT()NAMED_UNIT(*)SI_UNIT(.MILLI.,.METRE.)) ;
#42=(NAMED_UNIT(*)PLANE_ANGLE_UNIT()SI_UNIT($,.RADIAN.)) ;
#44=(NAMED_UNIT(*)SI_UNIT($,.STERADIAN.)SOLID_ANGLE_UNIT()) ;
#46=(GEOMETRIC_REPRESENTATION_CONTEXT(3)GLOBAL_UNCERTAINTY_ASSIGNED_CONTEXT((#45))GLOBAL_UNIT_ASSIGNED_CONTEXT((#41,#42,#44))REPRESENTATION_CONTEXT(' ',' ')) ;
ENDSEC;
END-ISO-10303-21;
