ISO-10303-21;
HEADER;
FILE_DESCRIPTION(('CATIA V5 STEP Exchange'),'2;1');

FILE_NAME('C:\\Users\\station1\\Desktop\\Bushing\\L21\\Bushing_L21.stp','2018-11-30T18:14:11+00:00',('none'),('none'),'CATIA Version 5 Release 21 GA (IN-10)','CATIA V5 STEP AP203','none');

FILE_SCHEMA(('CONFIG_CONTROL_DESIGN'));

ENDSEC;
/* file written by CATIA V5R21 */
DATA;
#5=PRODUCT('Bague_L21','','',(#2)) ;
#1=APPLICATION_CONTEXT('configuration controlled 3D design of mechanical parts and assemblies') ;
#14=PRODUCT_DEFINITION('',' ',#6,#3) ;
#16=SECURITY_CLASSIFICATION(' ',' ',#15) ;
#15=SECURITY_CLASSIFICATION_LEVEL('unclassified') ;
#47=CARTESIAN_POINT(' ',(0.,0.,0.)) ;
#52=CARTESIAN_POINT('Axis2P3D Location',(11.275,0.,0.)) ;
#57=CARTESIAN_POINT('Axis2P3D Location',(0.,0.,0.)) ;
#61=CARTESIAN_POINT('Vertex',(0.,3.42789260102,6.27471531752)) ;
#63=CARTESIAN_POINT('Vertex',(0.,-3.42789260102,-6.27471531752)) ;
#66=CARTESIAN_POINT('Line Origine',(0.775,3.42789260102,6.27471531752)) ;
#70=CARTESIAN_POINT('Vertex',(1.55,3.42789260102,6.27471531752)) ;
#73=CARTESIAN_POINT('Axis2P3D Location',(1.55,0.,0.)) ;
#77=CARTESIAN_POINT('Vertex',(1.55,-3.42789260102,-6.27471531752)) ;
#80=CARTESIAN_POINT('Line Origine',(0.775,-3.42789260102,-6.27471531752)) ;
#92=CARTESIAN_POINT('Axis2P3D Location',(0.,0.,0.)) ;
#97=CARTESIAN_POINT('Axis2P3D Location',(1.55,0.,0.)) ;
#109=CARTESIAN_POINT('Axis2P3D Location',(1.55,0.,5.57)) ;
#118=CARTESIAN_POINT('Axis2P3D Location',(1.55,-6.3496838429E-016,0.)) ;
#122=CARTESIAN_POINT('Vertex',(1.55,2.81422791161,5.1514096383)) ;
#124=CARTESIAN_POINT('Vertex',(1.55,-2.81422791161,-5.1514096383)) ;
#127=CARTESIAN_POINT('Axis2P3D Location',(1.55,-6.3496838429E-016,0.)) ;
#137=CARTESIAN_POINT('Axis2P3D Location',(1.85,1.7763568394E-015,-1.7763568394E-015)) ;
#142=CARTESIAN_POINT('Axis2P3D Location',(1.85,-2.81422791161,-5.1514096383)) ;
#146=CARTESIAN_POINT('Vertex',(1.85,-2.67040025003,-4.88813486973)) ;
#149=CARTESIAN_POINT('Axis2P3D Location',(1.85,1.7763568394E-015,-1.7763568394E-015)) ;
#153=CARTESIAN_POINT('Vertex',(1.85,2.67040025003,4.88813486973)) ;
#156=CARTESIAN_POINT('Axis2P3D Location',(1.85,2.81422791161,5.1514096383)) ;
#168=CARTESIAN_POINT('Axis2P3D Location',(1.85,-1.33226762955E-015,1.66533453694E-015)) ;
#173=CARTESIAN_POINT('Axis2P3D Location',(1.85,-1.33226762955E-015,1.66533453694E-015)) ;
#185=CARTESIAN_POINT('Axis2P3D Location',(11.275,0.,0.)) ;
#190=CARTESIAN_POINT('Line Origine',(12.05,-2.67040025003,-4.88813486973)) ;
#194=CARTESIAN_POINT('Vertex',(22.15,-2.67040025003,-4.88813486973)) ;
#197=CARTESIAN_POINT('Line Origine',(12.05,2.67040025003,4.88813486973)) ;
#201=CARTESIAN_POINT('Vertex',(22.15,2.67040025003,4.88813486973)) ;
#204=CARTESIAN_POINT('Axis2P3D Location',(22.15,0.,0.)) ;
#216=CARTESIAN_POINT('Axis2P3D Location',(22.15,0.,0.)) ;
#228=CARTESIAN_POINT('Axis2P3D Location',(27.72,2.62734278778E-014,1.23678844943E-014)) ;
#233=CARTESIAN_POINT('Line Origine',(22.35,-2.5745151423,-4.71261835735)) ;
#237=CARTESIAN_POINT('Vertex',(22.55,-2.47863003458,-4.53710184497)) ;
#240=CARTESIAN_POINT('Axis2P3D Location',(22.55,4.4408920985E-016,8.881784197E-016)) ;
#244=CARTESIAN_POINT('Vertex',(22.55,2.47863003458,4.53710184497)) ;
#247=CARTESIAN_POINT('Line Origine',(22.35,2.5745151423,4.71261835735)) ;
#259=CARTESIAN_POINT('Axis2P3D Location',(27.72,4.85167461761E-015,1.35443739557E-014)) ;
#264=CARTESIAN_POINT('Axis2P3D Location',(22.55,-8.881784197E-016,1.52655665886E-015)) ;
#276=CARTESIAN_POINT('Axis2P3D Location',(22.55,0.,3.97)) ;
#285=CARTESIAN_POINT('Axis2P3D Location',(22.55,-1.43210692054E-016,-4.4408920985E-016)) ;
#289=CARTESIAN_POINT('Vertex',(22.55,-2.0950896037,-3.83503579546)) ;
#291=CARTESIAN_POINT('Vertex',(22.55,2.0950896037,3.83503579546)) ;
#294=CARTESIAN_POINT('Axis2P3D Location',(22.55,-1.43210692054E-016,-4.4408920985E-016)) ;
#304=CARTESIAN_POINT('Axis2P3D Location',(18.18,1.06942232847E-014,4.85167461761E-015)) ;
#309=CARTESIAN_POINT('Line Origine',(22.35,-1.99920449598,-3.65951928308)) ;
#313=CARTESIAN_POINT('Vertex',(22.15,-1.90331938826,-3.4840027707)) ;
#316=CARTESIAN_POINT('Axis2P3D Location',(22.15,7.77156117238E-016,4.4408920985E-016)) ;
#320=CARTESIAN_POINT('Vertex',(22.15,1.90331938826,3.4840027707)) ;
#323=CARTESIAN_POINT('Line Origine',(22.35,1.99920449598,3.65951928308)) ;
#335=CARTESIAN_POINT('Axis2P3D Location',(18.18,9.25926002537E-015,9.26567850223E-015)) ;
#340=CARTESIAN_POINT('Axis2P3D Location',(22.15,4.4408920985E-016,3.81639164715E-016)) ;
#352=CARTESIAN_POINT('Axis2P3D Location',(0.,0.,7.15)) ;
#361=CARTESIAN_POINT('Axis2P3D Location',(0.,-1.43210692054E-016,8.881784197E-016)) ;
#365=CARTESIAN_POINT('Vertex',(0.,2.0950896037,3.83503579546)) ;
#367=CARTESIAN_POINT('Vertex',(0.,-2.0950896037,-3.83503579546)) ;
#370=CARTESIAN_POINT('Axis2P3D Location',(0.,-1.43210692054E-016,8.881784197E-016)) ;
#380=CARTESIAN_POINT('Axis2P3D Location',(11.275,0.,0.)) ;
#385=CARTESIAN_POINT('Axis2P3D Location',(0.4,0.,0.)) ;
#389=CARTESIAN_POINT('Vertex',(0.4,1.90331938826,3.4840027707)) ;
#391=CARTESIAN_POINT('Vertex',(0.4,-1.90331938826,-3.4840027707)) ;
#394=CARTESIAN_POINT('Line Origine',(11.275,-1.90331938826,-3.4840027707)) ;
#399=CARTESIAN_POINT('Line Origine',(11.275,1.90331938826,3.4840027707)) ;
#411=CARTESIAN_POINT('Axis2P3D Location',(0.4,0.,0.)) ;
#423=CARTESIAN_POINT('Axis2P3D Location',(4.37,1.06942232847E-014,4.85167461761E-015)) ;
#428=CARTESIAN_POINT('Line Origine',(0.2,-1.99920449598,-3.65951928308)) ;
#433=CARTESIAN_POINT('Line Origine',(0.2,1.99920449598,3.65951928308)) ;
#445=CARTESIAN_POINT('Axis2P3D Location',(4.37,9.25926002537E-015,9.26567850223E-015)) ;
#53=DIRECTION('Axis2P3D Direction',(-1.,0.,0.)) ;
#54=DIRECTION('Axis2P3D XDirection',(0.,0.479425538604,0.87758256189)) ;
#58=DIRECTION('Axis2P3D Direction',(-1.,0.,0.)) ;
#67=DIRECTION('Vector Direction',(-1.,0.,0.)) ;
#74=DIRECTION('Axis2P3D Direction',(-1.,0.,0.)) ;
#81=DIRECTION('Vector Direction',(-1.,0.,0.)) ;
#93=DIRECTION('Axis2P3D Direction',(-1.,0.,0.)) ;
#98=DIRECTION('Axis2P3D Direction',(-1.,0.,0.)) ;
#110=DIRECTION('Axis2P3D Direction',(-1.,0.,0.)) ;
#111=DIRECTION('Axis2P3D XDirection',(0.,1.,0.)) ;
#119=DIRECTION('Axis2P3D Direction',(-1.,0.,0.)) ;
#128=DIRECTION('Axis2P3D Direction',(-1.,0.,0.)) ;
#138=DIRECTION('Axis2P3D Direction',(-1.,0.,-0.)) ;
#139=DIRECTION('Axis2P3D XDirection',(0.,-0.479425538604,-0.87758256189)) ;
#143=DIRECTION('Axis2P3D Direction',(0.,0.87758256189,-0.479425538604)) ;
#150=DIRECTION('Axis2P3D Direction',(-1.,0.,-0.)) ;
#157=DIRECTION('Axis2P3D Direction',(-0.,-0.87758256189,0.479425538604)) ;
#169=DIRECTION('Axis2P3D Direction',(-1.,-0.,0.)) ;
#170=DIRECTION('Axis2P3D XDirection',(0.,0.479425538604,0.87758256189)) ;
#174=DIRECTION('Axis2P3D Direction',(-1.,-0.,0.)) ;
#186=DIRECTION('Axis2P3D Direction',(-1.,0.,0.)) ;
#187=DIRECTION('Axis2P3D XDirection',(0.,0.479425538604,0.87758256189)) ;
#191=DIRECTION('Vector Direction',(-1.,0.,0.)) ;
#198=DIRECTION('Vector Direction',(-1.,0.,0.)) ;
#205=DIRECTION('Axis2P3D Direction',(-1.,0.,0.)) ;
#217=DIRECTION('Axis2P3D Direction',(-1.,0.,0.)) ;
#229=DIRECTION('Axis2P3D Direction',(-1.,-4.99600361081E-015,-2.22044604925E-015)) ;
#230=DIRECTION('Axis2P3D XDirection',(-7.90253409579E-016,0.520296023213,-0.853985976599)) ;
#234=DIRECTION('Vector Direction',(-0.707106781187,-0.339005049421,-0.620544580564)) ;
#241=DIRECTION('Axis2P3D Direction',(-1.,-4.63014652401E-015,-2.82094424188E-015)) ;
#248=DIRECTION('Vector Direction',(-0.707106781187,0.339005049421,0.620544580564)) ;
#260=DIRECTION('Axis2P3D Direction',(-1.,-1.11022302463E-015,-2.32452945781E-015)) ;
#261=DIRECTION('Axis2P3D XDirection',(-2.50246913033E-015,0.479425538604,0.87758256189)) ;
#265=DIRECTION('Axis2P3D Direction',(-1.,1.2297250361E-016,-6.71801849043E-017)) ;
#277=DIRECTION('Axis2P3D Direction',(-1.,0.,0.)) ;
#278=DIRECTION('Axis2P3D XDirection',(0.,1.,0.)) ;
#286=DIRECTION('Axis2P3D Direction',(-1.,0.,0.)) ;
#295=DIRECTION('Axis2P3D Direction',(-1.,0.,0.)) ;
#305=DIRECTION('Axis2P3D Direction',(1.,-2.49800180541E-015,-1.11022302463E-015)) ;
#306=DIRECTION('Axis2P3D XDirection',(3.9512670479E-016,0.520296023213,-0.853985976599)) ;
#310=DIRECTION('Vector Direction',(0.707106781187,-0.339005049421,-0.620544580564)) ;
#317=DIRECTION('Axis2P3D Direction',(-1.,2.315073262E-015,1.41047212094E-015)) ;
#324=DIRECTION('Vector Direction',(0.707106781187,0.339005049421,0.620544580564)) ;
#336=DIRECTION('Axis2P3D Direction',(1.,-2.22044604925E-015,-2.23779328401E-015)) ;
#337=DIRECTION('Axis2P3D XDirection',(3.02930473672E-015,0.479425538604,0.87758256189)) ;
#341=DIRECTION('Axis2P3D Direction',(-1.,7.68560025612E-016,-4.19866255586E-016)) ;
#353=DIRECTION('Axis2P3D Direction',(-1.,0.,0.)) ;
#354=DIRECTION('Axis2P3D XDirection',(0.,1.,0.)) ;
#362=DIRECTION('Axis2P3D Direction',(-1.,0.,0.)) ;
#371=DIRECTION('Axis2P3D Direction',(-1.,0.,0.)) ;
#381=DIRECTION('Axis2P3D Direction',(-1.,0.,0.)) ;
#382=DIRECTION('Axis2P3D XDirection',(0.,0.479425538604,0.87758256189)) ;
#386=DIRECTION('Axis2P3D Direction',(-1.,0.,0.)) ;
#395=DIRECTION('Vector Direction',(-1.,0.,0.)) ;
#400=DIRECTION('Vector Direction',(-1.,0.,0.)) ;
#412=DIRECTION('Axis2P3D Direction',(-1.,0.,0.)) ;
#424=DIRECTION('Axis2P3D Direction',(-1.,-2.49800180541E-015,-1.11022302463E-015)) ;
#425=DIRECTION('Axis2P3D XDirection',(-3.9512670479E-016,0.520296023213,-0.853985976599)) ;
#429=DIRECTION('Vector Direction',(-0.707106781187,-0.339005049421,-0.620544580564)) ;
#434=DIRECTION('Vector Direction',(-0.707106781187,0.339005049421,0.620544580564)) ;
#446=DIRECTION('Axis2P3D Direction',(-1.,-2.22044604925E-015,-2.23779328401E-015)) ;
#447=DIRECTION('Axis2P3D XDirection',(-3.02930473672E-015,0.479425538604,0.87758256189)) ;
#48=AXIS2_PLACEMENT_3D(' ',#47,$,$) ;
#55=AXIS2_PLACEMENT_3D('Cylinder Axis2P3D',#52,#53,#54) ;
#59=AXIS2_PLACEMENT_3D('Circle Axis2P3D',#57,#58,$) ;
#75=AXIS2_PLACEMENT_3D('Circle Axis2P3D',#73,#74,$) ;
#94=AXIS2_PLACEMENT_3D('Circle Axis2P3D',#92,#93,$) ;
#99=AXIS2_PLACEMENT_3D('Circle Axis2P3D',#97,#98,$) ;
#112=AXIS2_PLACEMENT_3D('Plane Axis2P3D',#109,#110,#111) ;
#120=AXIS2_PLACEMENT_3D('Circle Axis2P3D',#118,#119,$) ;
#129=AXIS2_PLACEMENT_3D('Circle Axis2P3D',#127,#128,$) ;
#140=AXIS2_PLACEMENT_3D('Torus Axis2P3D',#137,#138,#139) ;
#144=AXIS2_PLACEMENT_3D('Circle Axis2P3D',#142,#143,$) ;
#151=AXIS2_PLACEMENT_3D('Circle Axis2P3D',#149,#150,$) ;
#158=AXIS2_PLACEMENT_3D('Circle Axis2P3D',#156,#157,$) ;
#171=AXIS2_PLACEMENT_3D('Torus Axis2P3D',#168,#169,#170) ;
#175=AXIS2_PLACEMENT_3D('Circle Axis2P3D',#173,#174,$) ;
#188=AXIS2_PLACEMENT_3D('Cylinder Axis2P3D',#185,#186,#187) ;
#206=AXIS2_PLACEMENT_3D('Circle Axis2P3D',#204,#205,$) ;
#218=AXIS2_PLACEMENT_3D('Circle Axis2P3D',#216,#217,$) ;
#231=AXIS2_PLACEMENT_3D('Cone Axis2P3D',#228,#229,#230) ;
#242=AXIS2_PLACEMENT_3D('Circle Axis2P3D',#240,#241,$) ;
#262=AXIS2_PLACEMENT_3D('Cone Axis2P3D',#259,#260,#261) ;
#266=AXIS2_PLACEMENT_3D('Circle Axis2P3D',#264,#265,$) ;
#279=AXIS2_PLACEMENT_3D('Plane Axis2P3D',#276,#277,#278) ;
#287=AXIS2_PLACEMENT_3D('Circle Axis2P3D',#285,#286,$) ;
#296=AXIS2_PLACEMENT_3D('Circle Axis2P3D',#294,#295,$) ;
#307=AXIS2_PLACEMENT_3D('Cone Axis2P3D',#304,#305,#306) ;
#318=AXIS2_PLACEMENT_3D('Circle Axis2P3D',#316,#317,$) ;
#338=AXIS2_PLACEMENT_3D('Cone Axis2P3D',#335,#336,#337) ;
#342=AXIS2_PLACEMENT_3D('Circle Axis2P3D',#340,#341,$) ;
#355=AXIS2_PLACEMENT_3D('Plane Axis2P3D',#352,#353,#354) ;
#363=AXIS2_PLACEMENT_3D('Circle Axis2P3D',#361,#362,$) ;
#372=AXIS2_PLACEMENT_3D('Circle Axis2P3D',#370,#371,$) ;
#383=AXIS2_PLACEMENT_3D('Cylinder Axis2P3D',#380,#381,#382) ;
#387=AXIS2_PLACEMENT_3D('Circle Axis2P3D',#385,#386,$) ;
#413=AXIS2_PLACEMENT_3D('Circle Axis2P3D',#411,#412,$) ;
#426=AXIS2_PLACEMENT_3D('Cone Axis2P3D',#423,#424,#425) ;
#448=AXIS2_PLACEMENT_3D('Cone Axis2P3D',#445,#446,#447) ;
#40=PRODUCT_DEFINITION_SHAPE(' ',' ',#14) ;
#31=APPROVAL_PERSON_ORGANIZATION(#25,#21,#19) ;
#25=PERSON_AND_ORGANIZATION(#22,#23) ;
#22=PERSON(' ',' ',' ',$,$,$) ;
#23=ORGANIZATION(' ',' ',' ') ;
#21=APPROVAL(#20,' ') ;
#20=APPROVAL_STATUS('not_yet_approved') ;
#19=APPROVAL_ROLE('APPROVER') ;
#13=DATE_AND_TIME(#11,#12) ;
#12=LOCAL_TIME(19,14,11.,#10) ;
#10=COORDINATED_UNIVERSAL_TIME_OFFSET(0,0,.AHEAD.) ;
#86=ORIENTED_EDGE('',*,*,#65,.F.) ;
#87=ORIENTED_EDGE('',*,*,#72,.T.) ;
#88=ORIENTED_EDGE('',*,*,#79,.T.) ;
#89=ORIENTED_EDGE('',*,*,#84,.F.) ;
#103=ORIENTED_EDGE('',*,*,#96,.F.) ;
#104=ORIENTED_EDGE('',*,*,#84,.T.) ;
#105=ORIENTED_EDGE('',*,*,#101,.T.) ;
#106=ORIENTED_EDGE('',*,*,#72,.F.) ;
#115=ORIENTED_EDGE('',*,*,#79,.F.) ;
#116=ORIENTED_EDGE('',*,*,#101,.F.) ;
#133=ORIENTED_EDGE('',*,*,#126,.F.) ;
#134=ORIENTED_EDGE('',*,*,#131,.F.) ;
#162=ORIENTED_EDGE('',*,*,#126,.T.) ;
#163=ORIENTED_EDGE('',*,*,#148,.T.) ;
#164=ORIENTED_EDGE('',*,*,#155,.F.) ;
#165=ORIENTED_EDGE('',*,*,#160,.F.) ;
#179=ORIENTED_EDGE('',*,*,#131,.T.) ;
#180=ORIENTED_EDGE('',*,*,#160,.T.) ;
#181=ORIENTED_EDGE('',*,*,#177,.F.) ;
#182=ORIENTED_EDGE('',*,*,#148,.F.) ;
#210=ORIENTED_EDGE('',*,*,#196,.F.) ;
#211=ORIENTED_EDGE('',*,*,#177,.T.) ;
#212=ORIENTED_EDGE('',*,*,#203,.T.) ;
#213=ORIENTED_EDGE('',*,*,#208,.T.) ;
#222=ORIENTED_EDGE('',*,*,#203,.F.) ;
#223=ORIENTED_EDGE('',*,*,#155,.T.) ;
#224=ORIENTED_EDGE('',*,*,#196,.T.) ;
#225=ORIENTED_EDGE('',*,*,#220,.T.) ;
#253=ORIENTED_EDGE('',*,*,#239,.T.) ;
#254=ORIENTED_EDGE('',*,*,#246,.T.) ;
#255=ORIENTED_EDGE('',*,*,#251,.F.) ;
#256=ORIENTED_EDGE('',*,*,#220,.F.) ;
#270=ORIENTED_EDGE('',*,*,#251,.T.) ;
#271=ORIENTED_EDGE('',*,*,#268,.T.) ;
#272=ORIENTED_EDGE('',*,*,#239,.F.) ;
#273=ORIENTED_EDGE('',*,*,#208,.F.) ;
#282=ORIENTED_EDGE('',*,*,#268,.F.) ;
#283=ORIENTED_EDGE('',*,*,#246,.F.) ;
#300=ORIENTED_EDGE('',*,*,#293,.T.) ;
#301=ORIENTED_EDGE('',*,*,#298,.T.) ;
#329=ORIENTED_EDGE('',*,*,#315,.T.) ;
#330=ORIENTED_EDGE('',*,*,#322,.T.) ;
#331=ORIENTED_EDGE('',*,*,#327,.F.) ;
#332=ORIENTED_EDGE('',*,*,#293,.F.) ;
#346=ORIENTED_EDGE('',*,*,#327,.T.) ;
#347=ORIENTED_EDGE('',*,*,#344,.T.) ;
#348=ORIENTED_EDGE('',*,*,#315,.F.) ;
#349=ORIENTED_EDGE('',*,*,#298,.F.) ;
#358=ORIENTED_EDGE('',*,*,#96,.T.) ;
#359=ORIENTED_EDGE('',*,*,#65,.T.) ;
#376=ORIENTED_EDGE('',*,*,#369,.F.) ;
#377=ORIENTED_EDGE('',*,*,#374,.F.) ;
#405=ORIENTED_EDGE('',*,*,#393,.T.) ;
#406=ORIENTED_EDGE('',*,*,#398,.F.) ;
#407=ORIENTED_EDGE('',*,*,#344,.F.) ;
#408=ORIENTED_EDGE('',*,*,#403,.T.) ;
#417=ORIENTED_EDGE('',*,*,#415,.T.) ;
#418=ORIENTED_EDGE('',*,*,#403,.F.) ;
#419=ORIENTED_EDGE('',*,*,#322,.F.) ;
#420=ORIENTED_EDGE('',*,*,#398,.T.) ;
#439=ORIENTED_EDGE('',*,*,#432,.T.) ;
#440=ORIENTED_EDGE('',*,*,#374,.T.) ;
#441=ORIENTED_EDGE('',*,*,#437,.F.) ;
#442=ORIENTED_EDGE('',*,*,#415,.F.) ;
#451=ORIENTED_EDGE('',*,*,#437,.T.) ;
#452=ORIENTED_EDGE('',*,*,#369,.T.) ;
#453=ORIENTED_EDGE('',*,*,#432,.F.) ;
#454=ORIENTED_EDGE('',*,*,#393,.F.) ;
#135=FACE_BOUND('',#132,.T.) ;
#302=FACE_BOUND('',#299,.T.) ;
#378=FACE_BOUND('',#375,.T.) ;
#51=CLOSED_SHELL('Closed Shell',(#91,#108,#136,#167,#184,#215,#227,#258,#275,#303,#334,#351,#379,#410,#422,#444,#456)) ;
#68=VECTOR('Line Direction',#67,1.) ;
#82=VECTOR('Line Direction',#81,1.) ;
#192=VECTOR('Line Direction',#191,1.) ;
#199=VECTOR('Line Direction',#198,1.) ;
#235=VECTOR('Line Direction',#234,1.) ;
#249=VECTOR('Line Direction',#248,1.) ;
#311=VECTOR('Line Direction',#310,1.) ;
#325=VECTOR('Line Direction',#324,1.) ;
#396=VECTOR('Line Direction',#395,1.) ;
#401=VECTOR('Line Direction',#400,1.) ;
#430=VECTOR('Line Direction',#429,1.) ;
#435=VECTOR('Line Direction',#434,1.) ;
#458=ADVANCED_BREP_SHAPE_REPRESENTATION('NONE',(#457),#46) ;
#49=SHAPE_REPRESENTATION(' ',(#48),#46) ;
#91=ADVANCED_FACE('Corps principal',(#90),#56,.T.) ;
#108=ADVANCED_FACE('Corps principal',(#107),#56,.T.) ;
#136=ADVANCED_FACE('Corps principal',(#117,#135),#113,.F.) ;
#167=ADVANCED_FACE('Corps principal',(#166),#141,.F.) ;
#184=ADVANCED_FACE('Corps principal',(#183),#172,.F.) ;
#215=ADVANCED_FACE('Corps principal',(#214),#189,.T.) ;
#227=ADVANCED_FACE('Corps principal',(#226),#189,.T.) ;
#258=ADVANCED_FACE('Corps principal',(#257),#232,.T.) ;
#275=ADVANCED_FACE('Corps principal',(#274),#263,.T.) ;
#303=ADVANCED_FACE('Corps principal',(#284,#302),#280,.F.) ;
#334=ADVANCED_FACE('Corps principal',(#333),#308,.F.) ;
#351=ADVANCED_FACE('Corps principal',(#350),#339,.F.) ;
#379=ADVANCED_FACE('Corps principal',(#360,#378),#356,.T.) ;
#410=ADVANCED_FACE('Corps principal',(#409),#384,.F.) ;
#422=ADVANCED_FACE('Corps principal',(#421),#384,.F.) ;
#444=ADVANCED_FACE('Corps principal',(#443),#427,.F.) ;
#456=ADVANCED_FACE('Corps principal',(#455),#449,.F.) ;
#4=APPLICATION_PROTOCOL_DEFINITION('international standard','config_control_design',1994,#1) ;
#32=APPROVAL_DATE_TIME(#13,#21) ;
#457=MANIFOLD_SOLID_BREP('Corps principal',#51) ;
#11=CALENDAR_DATE(2018,30,11) ;
#30=CC_DESIGN_APPROVAL(#21,(#16,#6,#14)) ;
#18=CC_DESIGN_DATE_AND_TIME_ASSIGNMENT(#13,#17,(#16)) ;
#29=CC_DESIGN_DATE_AND_TIME_ASSIGNMENT(#13,#28,(#14)) ;
#17=DATE_TIME_ROLE('classification_date') ;
#28=DATE_TIME_ROLE('creation_date') ;
#27=CC_DESIGN_PERSON_AND_ORGANIZATION_ASSIGNMENT(#25,#26,(#16)) ;
#33=CC_DESIGN_PERSON_AND_ORGANIZATION_ASSIGNMENT(#25,#34,(#6)) ;
#35=CC_DESIGN_PERSON_AND_ORGANIZATION_ASSIGNMENT(#25,#36,(#6,#14)) ;
#37=CC_DESIGN_PERSON_AND_ORGANIZATION_ASSIGNMENT(#25,#38,(#5)) ;
#26=PERSON_AND_ORGANIZATION_ROLE('classification_officer') ;
#34=PERSON_AND_ORGANIZATION_ROLE('design_supplier') ;
#36=PERSON_AND_ORGANIZATION_ROLE('creator') ;
#38=PERSON_AND_ORGANIZATION_ROLE('design_owner') ;
#39=CC_DESIGN_SECURITY_CLASSIFICATION(#16,(#6)) ;
#60=CIRCLE('generated circle',#59,7.15) ;
#76=CIRCLE('generated circle',#75,7.15) ;
#95=CIRCLE('generated circle',#94,7.15) ;
#100=CIRCLE('generated circle',#99,7.15) ;
#121=CIRCLE('generated circle',#120,5.87) ;
#130=CIRCLE('generated circle',#129,5.87) ;
#145=CIRCLE('generated circle',#144,0.3) ;
#152=CIRCLE('generated circle',#151,5.57) ;
#159=CIRCLE('generated circle',#158,0.3) ;
#176=CIRCLE('generated circle',#175,5.57) ;
#207=CIRCLE('generated circle',#206,5.57) ;
#219=CIRCLE('generated circle',#218,5.57) ;
#243=CIRCLE('generated circle',#242,5.17) ;
#267=CIRCLE('generated circle',#266,5.17) ;
#288=CIRCLE('generated circle',#287,4.37) ;
#297=CIRCLE('generated circle',#296,4.37) ;
#319=CIRCLE('generated circle',#318,3.97) ;
#343=CIRCLE('generated circle',#342,3.97) ;
#364=CIRCLE('generated circle',#363,4.37) ;
#373=CIRCLE('generated circle',#372,4.37) ;
#388=CIRCLE('generated circle',#387,3.97) ;
#414=CIRCLE('generated circle',#413,3.97) ;
#232=CONICAL_SURFACE('Cone',#231,0.,0.785398163397) ;
#263=CONICAL_SURFACE('Cone',#262,0.,0.785398163397) ;
#308=CONICAL_SURFACE('Cone',#307,0.,0.785398163397) ;
#339=CONICAL_SURFACE('Cone',#338,0.,0.785398163397) ;
#427=CONICAL_SURFACE('Cone',#426,0.,0.785398163397) ;
#449=CONICAL_SURFACE('Cone',#448,0.,0.785398163397) ;
#459=SHAPE_REPRESENTATION_RELATIONSHIP(' ',' ',#49,#458) ;
#56=CYLINDRICAL_SURFACE('generated cylinder',#55,7.15) ;
#189=CYLINDRICAL_SURFACE('generated cylinder',#188,5.57) ;
#384=CYLINDRICAL_SURFACE('generated cylinder',#383,3.97) ;
#141=TOROIDAL_SURFACE('homeo Torus',#140,5.87,0.3) ;
#172=TOROIDAL_SURFACE('homeo Torus',#171,5.87,0.3) ;
#3=DESIGN_CONTEXT(' ',#1,'design') ;
#65=EDGE_CURVE('',#62,#64,#60,.T.) ;
#72=EDGE_CURVE('',#62,#71,#69,.F.) ;
#79=EDGE_CURVE('',#71,#78,#76,.T.) ;
#84=EDGE_CURVE('',#64,#78,#83,.F.) ;
#96=EDGE_CURVE('',#64,#62,#95,.T.) ;
#101=EDGE_CURVE('',#78,#71,#100,.T.) ;
#126=EDGE_CURVE('',#123,#125,#121,.F.) ;
#131=EDGE_CURVE('',#125,#123,#130,.F.) ;
#148=EDGE_CURVE('',#125,#147,#145,.T.) ;
#155=EDGE_CURVE('',#154,#147,#152,.F.) ;
#160=EDGE_CURVE('',#123,#154,#159,.T.) ;
#177=EDGE_CURVE('',#147,#154,#176,.F.) ;
#196=EDGE_CURVE('',#147,#195,#193,.F.) ;
#203=EDGE_CURVE('',#154,#202,#200,.F.) ;
#208=EDGE_CURVE('',#202,#195,#207,.T.) ;
#220=EDGE_CURVE('',#195,#202,#219,.T.) ;
#239=EDGE_CURVE('',#195,#238,#236,.F.) ;
#246=EDGE_CURVE('',#238,#245,#243,.T.) ;
#251=EDGE_CURVE('',#202,#245,#250,.F.) ;
#268=EDGE_CURVE('',#245,#238,#267,.T.) ;
#293=EDGE_CURVE('',#290,#292,#288,.T.) ;
#298=EDGE_CURVE('',#292,#290,#297,.T.) ;
#315=EDGE_CURVE('',#290,#314,#312,.F.) ;
#322=EDGE_CURVE('',#314,#321,#319,.T.) ;
#327=EDGE_CURVE('',#292,#321,#326,.F.) ;
#344=EDGE_CURVE('',#321,#314,#343,.T.) ;
#369=EDGE_CURVE('',#366,#368,#364,.T.) ;
#374=EDGE_CURVE('',#368,#366,#373,.T.) ;
#393=EDGE_CURVE('',#390,#392,#388,.T.) ;
#398=EDGE_CURVE('',#314,#392,#397,.T.) ;
#403=EDGE_CURVE('',#321,#390,#402,.T.) ;
#415=EDGE_CURVE('',#392,#390,#414,.T.) ;
#432=EDGE_CURVE('',#392,#368,#431,.T.) ;
#437=EDGE_CURVE('',#390,#366,#436,.T.) ;
#85=EDGE_LOOP('',(#86,#87,#88,#89)) ;
#102=EDGE_LOOP('',(#103,#104,#105,#106)) ;
#114=EDGE_LOOP('',(#115,#116)) ;
#132=EDGE_LOOP('',(#133,#134)) ;
#161=EDGE_LOOP('',(#162,#163,#164,#165)) ;
#178=EDGE_LOOP('',(#179,#180,#181,#182)) ;
#209=EDGE_LOOP('',(#210,#211,#212,#213)) ;
#221=EDGE_LOOP('',(#222,#223,#224,#225)) ;
#252=EDGE_LOOP('',(#253,#254,#255,#256)) ;
#269=EDGE_LOOP('',(#270,#271,#272,#273)) ;
#281=EDGE_LOOP('',(#282,#283)) ;
#299=EDGE_LOOP('',(#300,#301)) ;
#328=EDGE_LOOP('',(#329,#330,#331,#332)) ;
#345=EDGE_LOOP('',(#346,#347,#348,#349)) ;
#357=EDGE_LOOP('',(#358,#359)) ;
#375=EDGE_LOOP('',(#376,#377)) ;
#404=EDGE_LOOP('',(#405,#406,#407,#408)) ;
#416=EDGE_LOOP('',(#417,#418,#419,#420)) ;
#438=EDGE_LOOP('',(#439,#440,#441,#442)) ;
#450=EDGE_LOOP('',(#451,#452,#453,#454)) ;
#90=FACE_OUTER_BOUND('',#85,.T.) ;
#107=FACE_OUTER_BOUND('',#102,.T.) ;
#117=FACE_OUTER_BOUND('',#114,.T.) ;
#166=FACE_OUTER_BOUND('',#161,.T.) ;
#183=FACE_OUTER_BOUND('',#178,.T.) ;
#214=FACE_OUTER_BOUND('',#209,.T.) ;
#226=FACE_OUTER_BOUND('',#221,.T.) ;
#257=FACE_OUTER_BOUND('',#252,.T.) ;
#274=FACE_OUTER_BOUND('',#269,.T.) ;
#284=FACE_OUTER_BOUND('',#281,.T.) ;
#333=FACE_OUTER_BOUND('',#328,.T.) ;
#350=FACE_OUTER_BOUND('',#345,.T.) ;
#360=FACE_OUTER_BOUND('',#357,.T.) ;
#409=FACE_OUTER_BOUND('',#404,.T.) ;
#421=FACE_OUTER_BOUND('',#416,.T.) ;
#443=FACE_OUTER_BOUND('',#438,.T.) ;
#455=FACE_OUTER_BOUND('',#450,.T.) ;
#45=UNCERTAINTY_MEASURE_WITH_UNIT(LENGTH_MEASURE(0.005),#41,'distance_accuracy_value','CONFUSED CURVE UNCERTAINTY') ;
#69=LINE('Line',#66,#68) ;
#83=LINE('Line',#80,#82) ;
#193=LINE('Line',#190,#192) ;
#200=LINE('Line',#197,#199) ;
#236=LINE('Line',#233,#235) ;
#250=LINE('Line',#247,#249) ;
#312=LINE('Line',#309,#311) ;
#326=LINE('Line',#323,#325) ;
#397=LINE('Line',#394,#396) ;
#402=LINE('Line',#399,#401) ;
#431=LINE('Line',#428,#430) ;
#436=LINE('Line',#433,#435) ;
#2=MECHANICAL_CONTEXT(' ',#1,'mechanical') ;
#24=PERSONAL_ADDRESS(' ',' ',' ',' ',' ',' ',' ',' ',' ',' ',' ',' ',(#22),' ') ;
#113=PLANE('',#112) ;
#280=PLANE('',#279) ;
#356=PLANE('',#355) ;
#43=PLANE_ANGLE_MEASURE_WITH_UNIT(PLANE_ANGLE_MEASURE(0.0174532925199),#42) ;
#7=PRODUCT_CATEGORY('part',$) ;
#9=PRODUCT_CATEGORY_RELATIONSHIP(' ',' ',#7,#8) ;
#6=PRODUCT_DEFINITION_FORMATION_WITH_SPECIFIED_SOURCE('',' ',#5,.NOT_KNOWN.) ;
#8=PRODUCT_RELATED_PRODUCT_CATEGORY('detail',$,(#5)) ;
#50=SHAPE_DEFINITION_REPRESENTATION(#40,#49) ;
#62=VERTEX_POINT('',#61) ;
#64=VERTEX_POINT('',#63) ;
#71=VERTEX_POINT('',#70) ;
#78=VERTEX_POINT('',#77) ;
#123=VERTEX_POINT('',#122) ;
#125=VERTEX_POINT('',#124) ;
#147=VERTEX_POINT('',#146) ;
#154=VERTEX_POINT('',#153) ;
#195=VERTEX_POINT('',#194) ;
#202=VERTEX_POINT('',#201) ;
#238=VERTEX_POINT('',#237) ;
#245=VERTEX_POINT('',#244) ;
#290=VERTEX_POINT('',#289) ;
#292=VERTEX_POINT('',#291) ;
#314=VERTEX_POINT('',#313) ;
#321=VERTEX_POINT('',#320) ;
#366=VERTEX_POINT('',#365) ;
#368=VERTEX_POINT('',#367) ;
#390=VERTEX_POINT('',#389) ;
#392=VERTEX_POINT('',#391) ;
#41=(LENGTH_UNIT()NAMED_UNIT(*)SI_UNIT(.MILLI.,.METRE.)) ;
#42=(NAMED_UNIT(*)PLANE_ANGLE_UNIT()SI_UNIT($,.RADIAN.)) ;
#44=(NAMED_UNIT(*)SI_UNIT($,.STERADIAN.)SOLID_ANGLE_UNIT()) ;
#46=(GEOMETRIC_REPRESENTATION_CONTEXT(3)GLOBAL_UNCERTAINTY_ASSIGNED_CONTEXT((#45))GLOBAL_UNIT_ASSIGNED_CONTEXT((#41,#42,#44))REPRESENTATION_CONTEXT(' ',' ')) ;
ENDSEC;
END-ISO-10303-21;
