ISO-10303-21;
HEADER;
/* Generated by software containing ST-Developer
 * from STEP Tools, Inc. (www.steptools.com) 
 */

FILE_DESCRIPTION(
/* description */ (''),
/* implementation_level */ '2;1');

FILE_NAME(
/* name */ 
'C:/Users/rannou3d/Documents/demande tarif gmail.com/le coq/axe poign\X\E9
e fauteuille roulant v1.step',
/* time_stamp */ '2018-12-20T17:56:36+01:00',
/* author */ ('sebastien_rannou@orange.fr'),
/* organization */ (''),
/* preprocessor_version */ 'ST-DEVELOPER v17.2',
/* originating_system */ 'Autodesk Translation Framework v7.6.0.251',
/* authorisation */ '');

FILE_SCHEMA (('AUTOMOTIVE_DESIGN { 1 0 10303 214 3 1 1 }'));
ENDSEC;

DATA;
#10=MECHANICAL_DESIGN_GEOMETRIC_PRESENTATION_REPRESENTATION('',(#13),#651);
#11=SHAPE_REPRESENTATION_RELATIONSHIP('SRR','None',#658,#12);
#12=ADVANCED_BREP_SHAPE_REPRESENTATION('',(#14),#650);
#13=STYLED_ITEM('',(#667),#14);
#14=MANIFOLD_SOLID_BREP('Body1',#371);
#15=FACE_BOUND('',#138,.T.);
#16=FACE_BOUND('',#140,.T.);
#17=PLANE('',#392);
#18=PLANE('',#393);
#19=PLANE('',#394);
#20=PLANE('',#395);
#21=PLANE('',#398);
#22=PLANE('',#401);
#23=PLANE('',#407);
#24=PLANE('',#411);
#25=PLANE('',#414);
#26=PLANE('',#419);
#27=PLANE('',#423);
#28=PLANE('',#424);
#29=LINE('',#556,#59);
#30=LINE('',#558,#60);
#31=LINE('',#561,#61);
#32=LINE('',#563,#62);
#33=LINE('',#564,#63);
#34=LINE('',#570,#64);
#35=LINE('',#574,#65);
#36=LINE('',#579,#66);
#37=LINE('',#583,#67);
#38=LINE('',#588,#68);
#39=LINE('',#592,#69);
#40=LINE('',#595,#70);
#41=LINE('',#596,#71);
#42=LINE('',#599,#72);
#43=LINE('',#602,#73);
#44=LINE('',#605,#74);
#45=LINE('',#608,#75);
#46=LINE('',#611,#76);
#47=LINE('',#614,#77);
#48=LINE('',#617,#78);
#49=LINE('',#618,#79);
#50=LINE('',#620,#80);
#51=LINE('',#622,#81);
#52=LINE('',#623,#82);
#53=LINE('',#627,#83);
#54=LINE('',#630,#84);
#55=LINE('',#632,#85);
#56=LINE('',#633,#86);
#57=LINE('',#634,#87);
#58=LINE('',#644,#88);
#59=VECTOR('',#439,3.);
#60=VECTOR('',#440,10.);
#61=VECTOR('',#443,10.);
#62=VECTOR('',#446,10.);
#63=VECTOR('',#447,10.);
#64=VECTOR('',#454,10.);
#65=VECTOR('',#457,10.);
#66=VECTOR('',#462,10.);
#67=VECTOR('',#465,10.);
#68=VECTOR('',#470,10.);
#69=VECTOR('',#473,10.);
#70=VECTOR('',#478,10.);
#71=VECTOR('',#479,10.);
#72=VECTOR('',#482,10.);
#73=VECTOR('',#485,10.);
#74=VECTOR('',#488,10.);
#75=VECTOR('',#491,10.);
#76=VECTOR('',#494,10.);
#77=VECTOR('',#497,10.);
#78=VECTOR('',#500,10.);
#79=VECTOR('',#501,10.);
#80=VECTOR('',#502,10.);
#81=VECTOR('',#503,10.);
#82=VECTOR('',#504,10.);
#83=VECTOR('',#509,10.);
#84=VECTOR('',#512,10.);
#85=VECTOR('',#513,10.);
#86=VECTOR('',#514,10.);
#87=VECTOR('',#515,10.);
#88=VECTOR('',#530,1.75);
#89=CYLINDRICAL_SURFACE('',#389,3.);
#90=CYLINDRICAL_SURFACE('',#404,0.7);
#91=CYLINDRICAL_SURFACE('',#405,0.7);
#92=CYLINDRICAL_SURFACE('',#409,1.25);
#93=CYLINDRICAL_SURFACE('',#412,1.25);
#94=CYLINDRICAL_SURFACE('',#415,1.25);
#95=CYLINDRICAL_SURFACE('',#417,1.25);
#96=CYLINDRICAL_SURFACE('',#420,1.75);
#97=FACE_OUTER_BOUND('',#118,.T.);
#98=FACE_OUTER_BOUND('',#119,.T.);
#99=FACE_OUTER_BOUND('',#120,.T.);
#100=FACE_OUTER_BOUND('',#121,.T.);
#101=FACE_OUTER_BOUND('',#122,.T.);
#102=FACE_OUTER_BOUND('',#123,.T.);
#103=FACE_OUTER_BOUND('',#124,.T.);
#104=FACE_OUTER_BOUND('',#125,.T.);
#105=FACE_OUTER_BOUND('',#126,.T.);
#106=FACE_OUTER_BOUND('',#127,.T.);
#107=FACE_OUTER_BOUND('',#128,.T.);
#108=FACE_OUTER_BOUND('',#129,.T.);
#109=FACE_OUTER_BOUND('',#130,.T.);
#110=FACE_OUTER_BOUND('',#131,.T.);
#111=FACE_OUTER_BOUND('',#132,.T.);
#112=FACE_OUTER_BOUND('',#133,.T.);
#113=FACE_OUTER_BOUND('',#134,.T.);
#114=FACE_OUTER_BOUND('',#135,.T.);
#115=FACE_OUTER_BOUND('',#136,.T.);
#116=FACE_OUTER_BOUND('',#137,.T.);
#117=FACE_OUTER_BOUND('',#139,.T.);
#118=EDGE_LOOP('',(#247,#248,#249,#250,#251));
#119=EDGE_LOOP('',(#252,#253,#254,#255,#256,#257,#258,#259));
#120=EDGE_LOOP('',(#260,#261,#262,#263,#264,#265));
#121=EDGE_LOOP('',(#266,#267));
#122=EDGE_LOOP('',(#268,#269));
#123=EDGE_LOOP('',(#270,#271,#272,#273));
#124=EDGE_LOOP('',(#274,#275,#276,#277));
#125=EDGE_LOOP('',(#278,#279,#280,#281));
#126=EDGE_LOOP('',(#282,#283,#284,#285));
#127=EDGE_LOOP('',(#286,#287,#288,#289));
#128=EDGE_LOOP('',(#290,#291,#292,#293));
#129=EDGE_LOOP('',(#294,#295,#296,#297));
#130=EDGE_LOOP('',(#298,#299,#300,#301,#302,#303,#304,#305,#306,#307,#308,
#309));
#131=EDGE_LOOP('',(#310,#311,#312,#313));
#132=EDGE_LOOP('',(#314,#315,#316,#317,#318,#319,#320,#321,#322,#323,#324,
#325));
#133=EDGE_LOOP('',(#326,#327,#328,#329));
#134=EDGE_LOOP('',(#330,#331,#332,#333));
#135=EDGE_LOOP('',(#334,#335,#336,#337));
#136=EDGE_LOOP('',(#338,#339,#340,#341));
#137=EDGE_LOOP('',(#342));
#138=EDGE_LOOP('',(#343,#344,#345,#346));
#139=EDGE_LOOP('',(#347));
#140=EDGE_LOOP('',(#348));
#141=CIRCLE('',#386,3.);
#142=CIRCLE('',#387,3.);
#143=CIRCLE('',#388,2.4);
#144=CIRCLE('',#390,3.);
#145=CIRCLE('',#391,3.);
#146=CIRCLE('',#396,1.25);
#147=CIRCLE('',#397,0.7);
#148=CIRCLE('',#399,0.7);
#149=CIRCLE('',#400,1.25);
#150=CIRCLE('',#402,0.7);
#151=CIRCLE('',#403,1.25);
#152=CIRCLE('',#406,0.7);
#153=CIRCLE('',#408,1.25);
#154=CIRCLE('',#410,1.25);
#155=CIRCLE('',#413,1.25);
#156=CIRCLE('',#416,1.25);
#157=CIRCLE('',#418,1.25);
#158=CIRCLE('',#421,1.75);
#159=CIRCLE('',#422,1.75);
#160=(
BOUNDED_CURVE()
B_SPLINE_CURVE(2,(#541,#542,#543),.UNSPECIFIED.,.F.,.F.)
B_SPLINE_CURVE_WITH_KNOTS((3,3),(0.,0.197451829161679),.UNSPECIFIED.)
CURVE()
GEOMETRIC_REPRESENTATION_ITEM()
RATIONAL_B_SPLINE_CURVE((1.,1.05594031125122,1.09493473158665))
REPRESENTATION_ITEM('')
);
#161=(
BOUNDED_CURVE()
B_SPLINE_CURVE(2,(#549,#550,#551),.UNSPECIFIED.,.F.,.F.)
B_SPLINE_CURVE_WITH_KNOTS((3,3),(1.10617001466049,1.30362184382217),
 .UNSPECIFIED.)
CURVE()
GEOMETRIC_REPRESENTATION_ITEM()
RATIONAL_B_SPLINE_CURVE((1.09493473158665,1.05594031125122,1.))
REPRESENTATION_ITEM('')
);
#162=VERTEX_POINT('',#539);
#163=VERTEX_POINT('',#540);
#164=VERTEX_POINT('',#544);
#165=VERTEX_POINT('',#546);
#166=VERTEX_POINT('',#548);
#167=VERTEX_POINT('',#554);
#168=VERTEX_POINT('',#557);
#169=VERTEX_POINT('',#559);
#170=VERTEX_POINT('',#568);
#171=VERTEX_POINT('',#569);
#172=VERTEX_POINT('',#571);
#173=VERTEX_POINT('',#573);
#174=VERTEX_POINT('',#577);
#175=VERTEX_POINT('',#578);
#176=VERTEX_POINT('',#580);
#177=VERTEX_POINT('',#582);
#178=VERTEX_POINT('',#586);
#179=VERTEX_POINT('',#587);
#180=VERTEX_POINT('',#589);
#181=VERTEX_POINT('',#591);
#182=VERTEX_POINT('',#598);
#183=VERTEX_POINT('',#600);
#184=VERTEX_POINT('',#604);
#185=VERTEX_POINT('',#606);
#186=VERTEX_POINT('',#610);
#187=VERTEX_POINT('',#612);
#188=VERTEX_POINT('',#616);
#189=VERTEX_POINT('',#619);
#190=VERTEX_POINT('',#621);
#191=VERTEX_POINT('',#625);
#192=VERTEX_POINT('',#629);
#193=VERTEX_POINT('',#631);
#194=VERTEX_POINT('',#641);
#195=VERTEX_POINT('',#643);
#196=EDGE_CURVE('',#162,#163,#160,.T.);
#197=EDGE_CURVE('',#163,#164,#141,.T.);
#198=EDGE_CURVE('',#164,#165,#142,.T.);
#199=EDGE_CURVE('',#165,#166,#161,.T.);
#200=EDGE_CURVE('',#166,#162,#143,.T.);
#201=EDGE_CURVE('',#167,#167,#144,.T.);
#202=EDGE_CURVE('',#167,#164,#29,.T.);
#203=EDGE_CURVE('',#163,#168,#30,.T.);
#204=EDGE_CURVE('',#168,#169,#145,.T.);
#205=EDGE_CURVE('',#169,#165,#31,.T.);
#206=EDGE_CURVE('',#169,#168,#32,.T.);
#207=EDGE_CURVE('',#166,#162,#33,.T.);
#208=EDGE_CURVE('',#170,#171,#34,.T.);
#209=EDGE_CURVE('',#172,#170,#146,.T.);
#210=EDGE_CURVE('',#173,#172,#35,.T.);
#211=EDGE_CURVE('',#171,#173,#147,.T.);
#212=EDGE_CURVE('',#174,#175,#36,.T.);
#213=EDGE_CURVE('',#174,#176,#148,.T.);
#214=EDGE_CURVE('',#177,#176,#37,.T.);
#215=EDGE_CURVE('',#175,#177,#149,.T.);
#216=EDGE_CURVE('',#178,#179,#38,.T.);
#217=EDGE_CURVE('',#178,#180,#150,.T.);
#218=EDGE_CURVE('',#181,#180,#39,.T.);
#219=EDGE_CURVE('',#179,#181,#151,.T.);
#220=EDGE_CURVE('',#171,#174,#40,.T.);
#221=EDGE_CURVE('',#176,#173,#41,.T.);
#222=EDGE_CURVE('',#182,#178,#42,.T.);
#223=EDGE_CURVE('',#182,#183,#152,.T.);
#224=EDGE_CURVE('',#180,#183,#43,.T.);
#225=EDGE_CURVE('',#184,#182,#44,.T.);
#226=EDGE_CURVE('',#185,#184,#153,.T.);
#227=EDGE_CURVE('',#183,#185,#45,.T.);
#228=EDGE_CURVE('',#181,#186,#46,.T.);
#229=EDGE_CURVE('',#187,#186,#154,.T.);
#230=EDGE_CURVE('',#179,#187,#47,.T.);
#231=EDGE_CURVE('',#188,#187,#48,.T.);
#232=EDGE_CURVE('',#177,#188,#49,.T.);
#233=EDGE_CURVE('',#189,#172,#50,.T.);
#234=EDGE_CURVE('',#190,#189,#51,.T.);
#235=EDGE_CURVE('',#190,#184,#52,.T.);
#236=EDGE_CURVE('',#191,#188,#155,.T.);
#237=EDGE_CURVE('',#175,#191,#53,.T.);
#238=EDGE_CURVE('',#192,#185,#54,.T.);
#239=EDGE_CURVE('',#193,#192,#55,.T.);
#240=EDGE_CURVE('',#193,#170,#56,.T.);
#241=EDGE_CURVE('',#186,#191,#57,.T.);
#242=EDGE_CURVE('',#192,#190,#156,.T.);
#243=EDGE_CURVE('',#189,#193,#157,.T.);
#244=EDGE_CURVE('',#194,#194,#158,.T.);
#245=EDGE_CURVE('',#194,#195,#58,.T.);
#246=EDGE_CURVE('',#195,#195,#159,.T.);
#247=ORIENTED_EDGE('',*,*,#196,.T.);
#248=ORIENTED_EDGE('',*,*,#197,.T.);
#249=ORIENTED_EDGE('',*,*,#198,.T.);
#250=ORIENTED_EDGE('',*,*,#199,.T.);
#251=ORIENTED_EDGE('',*,*,#200,.T.);
#252=ORIENTED_EDGE('',*,*,#201,.F.);
#253=ORIENTED_EDGE('',*,*,#202,.T.);
#254=ORIENTED_EDGE('',*,*,#197,.F.);
#255=ORIENTED_EDGE('',*,*,#203,.T.);
#256=ORIENTED_EDGE('',*,*,#204,.T.);
#257=ORIENTED_EDGE('',*,*,#205,.T.);
#258=ORIENTED_EDGE('',*,*,#198,.F.);
#259=ORIENTED_EDGE('',*,*,#202,.F.);
#260=ORIENTED_EDGE('',*,*,#199,.F.);
#261=ORIENTED_EDGE('',*,*,#205,.F.);
#262=ORIENTED_EDGE('',*,*,#206,.T.);
#263=ORIENTED_EDGE('',*,*,#203,.F.);
#264=ORIENTED_EDGE('',*,*,#196,.F.);
#265=ORIENTED_EDGE('',*,*,#207,.F.);
#266=ORIENTED_EDGE('',*,*,#204,.F.);
#267=ORIENTED_EDGE('',*,*,#206,.F.);
#268=ORIENTED_EDGE('',*,*,#200,.F.);
#269=ORIENTED_EDGE('',*,*,#207,.T.);
#270=ORIENTED_EDGE('',*,*,#208,.F.);
#271=ORIENTED_EDGE('',*,*,#209,.F.);
#272=ORIENTED_EDGE('',*,*,#210,.F.);
#273=ORIENTED_EDGE('',*,*,#211,.F.);
#274=ORIENTED_EDGE('',*,*,#212,.F.);
#275=ORIENTED_EDGE('',*,*,#213,.T.);
#276=ORIENTED_EDGE('',*,*,#214,.F.);
#277=ORIENTED_EDGE('',*,*,#215,.F.);
#278=ORIENTED_EDGE('',*,*,#216,.F.);
#279=ORIENTED_EDGE('',*,*,#217,.T.);
#280=ORIENTED_EDGE('',*,*,#218,.F.);
#281=ORIENTED_EDGE('',*,*,#219,.F.);
#282=ORIENTED_EDGE('',*,*,#220,.F.);
#283=ORIENTED_EDGE('',*,*,#211,.T.);
#284=ORIENTED_EDGE('',*,*,#221,.F.);
#285=ORIENTED_EDGE('',*,*,#213,.F.);
#286=ORIENTED_EDGE('',*,*,#222,.F.);
#287=ORIENTED_EDGE('',*,*,#223,.T.);
#288=ORIENTED_EDGE('',*,*,#224,.F.);
#289=ORIENTED_EDGE('',*,*,#217,.F.);
#290=ORIENTED_EDGE('',*,*,#225,.F.);
#291=ORIENTED_EDGE('',*,*,#226,.F.);
#292=ORIENTED_EDGE('',*,*,#227,.F.);
#293=ORIENTED_EDGE('',*,*,#223,.F.);
#294=ORIENTED_EDGE('',*,*,#219,.T.);
#295=ORIENTED_EDGE('',*,*,#228,.T.);
#296=ORIENTED_EDGE('',*,*,#229,.F.);
#297=ORIENTED_EDGE('',*,*,#230,.F.);
#298=ORIENTED_EDGE('',*,*,#225,.T.);
#299=ORIENTED_EDGE('',*,*,#222,.T.);
#300=ORIENTED_EDGE('',*,*,#216,.T.);
#301=ORIENTED_EDGE('',*,*,#230,.T.);
#302=ORIENTED_EDGE('',*,*,#231,.F.);
#303=ORIENTED_EDGE('',*,*,#232,.F.);
#304=ORIENTED_EDGE('',*,*,#214,.T.);
#305=ORIENTED_EDGE('',*,*,#221,.T.);
#306=ORIENTED_EDGE('',*,*,#210,.T.);
#307=ORIENTED_EDGE('',*,*,#233,.F.);
#308=ORIENTED_EDGE('',*,*,#234,.F.);
#309=ORIENTED_EDGE('',*,*,#235,.T.);
#310=ORIENTED_EDGE('',*,*,#215,.T.);
#311=ORIENTED_EDGE('',*,*,#232,.T.);
#312=ORIENTED_EDGE('',*,*,#236,.F.);
#313=ORIENTED_EDGE('',*,*,#237,.F.);
#314=ORIENTED_EDGE('',*,*,#227,.T.);
#315=ORIENTED_EDGE('',*,*,#238,.F.);
#316=ORIENTED_EDGE('',*,*,#239,.F.);
#317=ORIENTED_EDGE('',*,*,#240,.T.);
#318=ORIENTED_EDGE('',*,*,#208,.T.);
#319=ORIENTED_EDGE('',*,*,#220,.T.);
#320=ORIENTED_EDGE('',*,*,#212,.T.);
#321=ORIENTED_EDGE('',*,*,#237,.T.);
#322=ORIENTED_EDGE('',*,*,#241,.F.);
#323=ORIENTED_EDGE('',*,*,#228,.F.);
#324=ORIENTED_EDGE('',*,*,#218,.T.);
#325=ORIENTED_EDGE('',*,*,#224,.T.);
#326=ORIENTED_EDGE('',*,*,#226,.T.);
#327=ORIENTED_EDGE('',*,*,#235,.F.);
#328=ORIENTED_EDGE('',*,*,#242,.F.);
#329=ORIENTED_EDGE('',*,*,#238,.T.);
#330=ORIENTED_EDGE('',*,*,#209,.T.);
#331=ORIENTED_EDGE('',*,*,#240,.F.);
#332=ORIENTED_EDGE('',*,*,#243,.F.);
#333=ORIENTED_EDGE('',*,*,#233,.T.);
#334=ORIENTED_EDGE('',*,*,#236,.T.);
#335=ORIENTED_EDGE('',*,*,#231,.T.);
#336=ORIENTED_EDGE('',*,*,#229,.T.);
#337=ORIENTED_EDGE('',*,*,#241,.T.);
#338=ORIENTED_EDGE('',*,*,#244,.F.);
#339=ORIENTED_EDGE('',*,*,#245,.T.);
#340=ORIENTED_EDGE('',*,*,#246,.F.);
#341=ORIENTED_EDGE('',*,*,#245,.F.);
#342=ORIENTED_EDGE('',*,*,#244,.T.);
#343=ORIENTED_EDGE('',*,*,#239,.T.);
#344=ORIENTED_EDGE('',*,*,#242,.T.);
#345=ORIENTED_EDGE('',*,*,#234,.T.);
#346=ORIENTED_EDGE('',*,*,#243,.T.);
#347=ORIENTED_EDGE('',*,*,#201,.T.);
#348=ORIENTED_EDGE('',*,*,#246,.T.);
#349=CONICAL_SURFACE('',#385,2.7,0.785398163397448);
#350=ADVANCED_FACE('',(#97),#349,.T.);
#351=ADVANCED_FACE('',(#98),#89,.T.);
#352=ADVANCED_FACE('',(#99),#17,.F.);
#353=ADVANCED_FACE('',(#100),#18,.F.);
#354=ADVANCED_FACE('',(#101),#19,.F.);
#355=ADVANCED_FACE('',(#102),#20,.F.);
#356=ADVANCED_FACE('',(#103),#21,.F.);
#357=ADVANCED_FACE('',(#104),#22,.F.);
#358=ADVANCED_FACE('',(#105),#90,.T.);
#359=ADVANCED_FACE('',(#106),#91,.T.);
#360=ADVANCED_FACE('',(#107),#23,.F.);
#361=ADVANCED_FACE('',(#108),#92,.T.);
#362=ADVANCED_FACE('',(#109),#24,.T.);
#363=ADVANCED_FACE('',(#110),#93,.T.);
#364=ADVANCED_FACE('',(#111),#25,.T.);
#365=ADVANCED_FACE('',(#112),#94,.T.);
#366=ADVANCED_FACE('',(#113),#95,.T.);
#367=ADVANCED_FACE('',(#114),#26,.T.);
#368=ADVANCED_FACE('',(#115),#96,.T.);
#369=ADVANCED_FACE('',(#116,#15),#27,.T.);
#370=ADVANCED_FACE('',(#117,#16),#28,.T.);
#371=CLOSED_SHELL('',(#350,#351,#352,#353,#354,#355,#356,#357,#358,#359,
#360,#361,#362,#363,#364,#365,#366,#367,#368,#369,#370));
#372=DERIVED_UNIT_ELEMENT(#374,1.);
#373=DERIVED_UNIT_ELEMENT(#653,3.);
#374=(
MASS_UNIT()
NAMED_UNIT(*)
SI_UNIT(.KILO.,.GRAM.)
);
#375=DERIVED_UNIT((#372,#373));
#376=MEASURE_REPRESENTATION_ITEM('density measure',
POSITIVE_RATIO_MEASURE(7850.),#375);
#377=PROPERTY_DEFINITION_REPRESENTATION(#382,#379);
#378=PROPERTY_DEFINITION_REPRESENTATION(#383,#380);
#379=REPRESENTATION('material name',(#381),#650);
#380=REPRESENTATION('density',(#376),#650);
#381=DESCRIPTIVE_REPRESENTATION_ITEM('Steel','Steel');
#382=PROPERTY_DEFINITION('material property','material name',#660);
#383=PROPERTY_DEFINITION('material property','density of part',#660);
#384=AXIS2_PLACEMENT_3D('placement',#537,#425,#426);
#385=AXIS2_PLACEMENT_3D('',#538,#427,#428);
#386=AXIS2_PLACEMENT_3D('',#545,#429,#430);
#387=AXIS2_PLACEMENT_3D('',#547,#431,#432);
#388=AXIS2_PLACEMENT_3D('',#552,#433,#434);
#389=AXIS2_PLACEMENT_3D('',#553,#435,#436);
#390=AXIS2_PLACEMENT_3D('',#555,#437,#438);
#391=AXIS2_PLACEMENT_3D('',#560,#441,#442);
#392=AXIS2_PLACEMENT_3D('',#562,#444,#445);
#393=AXIS2_PLACEMENT_3D('',#565,#448,#449);
#394=AXIS2_PLACEMENT_3D('',#566,#450,#451);
#395=AXIS2_PLACEMENT_3D('',#567,#452,#453);
#396=AXIS2_PLACEMENT_3D('',#572,#455,#456);
#397=AXIS2_PLACEMENT_3D('',#575,#458,#459);
#398=AXIS2_PLACEMENT_3D('',#576,#460,#461);
#399=AXIS2_PLACEMENT_3D('',#581,#463,#464);
#400=AXIS2_PLACEMENT_3D('',#584,#466,#467);
#401=AXIS2_PLACEMENT_3D('',#585,#468,#469);
#402=AXIS2_PLACEMENT_3D('',#590,#471,#472);
#403=AXIS2_PLACEMENT_3D('',#593,#474,#475);
#404=AXIS2_PLACEMENT_3D('',#594,#476,#477);
#405=AXIS2_PLACEMENT_3D('',#597,#480,#481);
#406=AXIS2_PLACEMENT_3D('',#601,#483,#484);
#407=AXIS2_PLACEMENT_3D('',#603,#486,#487);
#408=AXIS2_PLACEMENT_3D('',#607,#489,#490);
#409=AXIS2_PLACEMENT_3D('',#609,#492,#493);
#410=AXIS2_PLACEMENT_3D('',#613,#495,#496);
#411=AXIS2_PLACEMENT_3D('',#615,#498,#499);
#412=AXIS2_PLACEMENT_3D('',#624,#505,#506);
#413=AXIS2_PLACEMENT_3D('',#626,#507,#508);
#414=AXIS2_PLACEMENT_3D('',#628,#510,#511);
#415=AXIS2_PLACEMENT_3D('',#635,#516,#517);
#416=AXIS2_PLACEMENT_3D('',#636,#518,#519);
#417=AXIS2_PLACEMENT_3D('',#637,#520,#521);
#418=AXIS2_PLACEMENT_3D('',#638,#522,#523);
#419=AXIS2_PLACEMENT_3D('',#639,#524,#525);
#420=AXIS2_PLACEMENT_3D('',#640,#526,#527);
#421=AXIS2_PLACEMENT_3D('',#642,#528,#529);
#422=AXIS2_PLACEMENT_3D('',#645,#531,#532);
#423=AXIS2_PLACEMENT_3D('',#646,#533,#534);
#424=AXIS2_PLACEMENT_3D('',#647,#535,#536);
#425=DIRECTION('axis',(0.,0.,1.));
#426=DIRECTION('refdir',(1.,0.,0.));
#427=DIRECTION('center_axis',(0.,0.,1.));
#428=DIRECTION('ref_axis',(6.12323399573677E-17,-1.,0.));
#429=DIRECTION('center_axis',(0.,0.,-1.));
#430=DIRECTION('ref_axis',(1.,0.,0.));
#431=DIRECTION('center_axis',(0.,0.,-1.));
#432=DIRECTION('ref_axis',(1.,0.,0.));
#433=DIRECTION('center_axis',(0.,0.,1.));
#434=DIRECTION('ref_axis',(1.,0.,0.));
#435=DIRECTION('center_axis',(0.,0.,1.));
#436=DIRECTION('ref_axis',(1.,0.,0.));
#437=DIRECTION('center_axis',(0.,0.,1.));
#438=DIRECTION('ref_axis',(1.,0.,0.));
#439=DIRECTION('',(0.,0.,-1.));
#440=DIRECTION('',(0.,0.,1.));
#441=DIRECTION('center_axis',(0.,0.,1.));
#442=DIRECTION('ref_axis',(1.,0.,0.));
#443=DIRECTION('',(0.,0.,-1.));
#444=DIRECTION('center_axis',(0.,-1.,0.));
#445=DIRECTION('ref_axis',(1.,0.,0.));
#446=DIRECTION('',(1.,0.,0.));
#447=DIRECTION('',(1.,0.,0.));
#448=DIRECTION('center_axis',(0.,0.,1.));
#449=DIRECTION('ref_axis',(1.,0.,0.));
#450=DIRECTION('center_axis',(0.,0.,1.));
#451=DIRECTION('ref_axis',(1.,0.,0.));
#452=DIRECTION('center_axis',(0.,0.,-1.));
#453=DIRECTION('ref_axis',(-1.,0.,0.));
#454=DIRECTION('',(1.,0.,0.));
#455=DIRECTION('center_axis',(0.,0.,-1.));
#456=DIRECTION('ref_axis',(1.,0.,0.));
#457=DIRECTION('',(-1.,0.,0.));
#458=DIRECTION('center_axis',(0.,0.,1.));
#459=DIRECTION('ref_axis',(1.,0.,0.));
#460=DIRECTION('center_axis',(0.,0.,1.));
#461=DIRECTION('ref_axis',(1.,0.,0.));
#462=DIRECTION('',(-1.,0.,0.));
#463=DIRECTION('center_axis',(0.,0.,1.));
#464=DIRECTION('ref_axis',(1.,0.,0.));
#465=DIRECTION('',(1.,0.,0.));
#466=DIRECTION('center_axis',(0.,0.,1.));
#467=DIRECTION('ref_axis',(1.,0.,0.));
#468=DIRECTION('center_axis',(0.,0.,1.));
#469=DIRECTION('ref_axis',(1.,0.,0.));
#470=DIRECTION('',(1.,0.,0.));
#471=DIRECTION('center_axis',(0.,0.,1.));
#472=DIRECTION('ref_axis',(1.,0.,0.));
#473=DIRECTION('',(-1.,0.,0.));
#474=DIRECTION('center_axis',(0.,0.,1.));
#475=DIRECTION('ref_axis',(1.,0.,0.));
#476=DIRECTION('center_axis',(0.,0.,1.));
#477=DIRECTION('ref_axis',(-1.,1.22464679914735E-16,0.));
#478=DIRECTION('',(0.,0.,1.));
#479=DIRECTION('',(0.,0.,-1.));
#480=DIRECTION('center_axis',(0.,0.,1.));
#481=DIRECTION('ref_axis',(1.,0.,0.));
#482=DIRECTION('',(0.,0.,1.));
#483=DIRECTION('center_axis',(0.,0.,1.));
#484=DIRECTION('ref_axis',(1.,0.,0.));
#485=DIRECTION('',(0.,0.,-1.));
#486=DIRECTION('center_axis',(0.,0.,-1.));
#487=DIRECTION('ref_axis',(-1.,0.,0.));
#488=DIRECTION('',(-1.,0.,0.));
#489=DIRECTION('center_axis',(0.,0.,-1.));
#490=DIRECTION('ref_axis',(1.,0.,0.));
#491=DIRECTION('',(1.,0.,0.));
#492=DIRECTION('center_axis',(0.,0.,1.));
#493=DIRECTION('ref_axis',(1.,0.,0.));
#494=DIRECTION('',(0.,0.,1.));
#495=DIRECTION('center_axis',(0.,0.,1.));
#496=DIRECTION('ref_axis',(1.,0.,0.));
#497=DIRECTION('',(0.,0.,1.));
#498=DIRECTION('center_axis',(0.,-1.,0.));
#499=DIRECTION('ref_axis',(1.,0.,0.));
#500=DIRECTION('',(1.,0.,0.));
#501=DIRECTION('',(0.,0.,1.));
#502=DIRECTION('',(0.,0.,1.));
#503=DIRECTION('',(-1.,0.,0.));
#504=DIRECTION('',(0.,0.,1.));
#505=DIRECTION('center_axis',(0.,0.,1.));
#506=DIRECTION('ref_axis',(-1.,1.22464679914735E-16,0.));
#507=DIRECTION('center_axis',(0.,0.,1.));
#508=DIRECTION('ref_axis',(1.,0.,0.));
#509=DIRECTION('',(0.,0.,1.));
#510=DIRECTION('center_axis',(0.,1.,0.));
#511=DIRECTION('ref_axis',(-1.,0.,0.));
#512=DIRECTION('',(0.,0.,1.));
#513=DIRECTION('',(1.,0.,0.));
#514=DIRECTION('',(0.,0.,1.));
#515=DIRECTION('',(-1.,0.,0.));
#516=DIRECTION('center_axis',(0.,0.,1.));
#517=DIRECTION('ref_axis',(1.,0.,0.));
#518=DIRECTION('center_axis',(0.,0.,-1.));
#519=DIRECTION('ref_axis',(1.,0.,0.));
#520=DIRECTION('center_axis',(0.,0.,1.));
#521=DIRECTION('ref_axis',(-1.,1.22464679914735E-16,0.));
#522=DIRECTION('center_axis',(0.,0.,-1.));
#523=DIRECTION('ref_axis',(1.,0.,0.));
#524=DIRECTION('center_axis',(0.,0.,1.));
#525=DIRECTION('ref_axis',(1.,0.,0.));
#526=DIRECTION('center_axis',(0.,0.,1.));
#527=DIRECTION('ref_axis',(1.,0.,0.));
#528=DIRECTION('center_axis',(0.,0.,1.));
#529=DIRECTION('ref_axis',(1.,0.,0.));
#530=DIRECTION('',(0.,0.,-1.));
#531=DIRECTION('center_axis',(0.,0.,-1.));
#532=DIRECTION('ref_axis',(1.,0.,0.));
#533=DIRECTION('center_axis',(0.,0.,1.));
#534=DIRECTION('ref_axis',(1.,0.,0.));
#535=DIRECTION('center_axis',(0.,0.,1.));
#536=DIRECTION('ref_axis',(1.,0.,0.));
#537=CARTESIAN_POINT('',(0.,0.,0.));
#538=CARTESIAN_POINT('Origin',(0.,0.,0.3));
#539=CARTESIAN_POINT('',(1.87349939951952,1.5,0.));
#540=CARTESIAN_POINT('',(2.59807621135332,1.5,0.6));
#541=CARTESIAN_POINT('Ctrl Pts',(1.87349939951952,1.5,-3.46944695195361E-17));
#542=CARTESIAN_POINT('Ctrl Pts',(2.19553353811259,1.5,0.251387818866244));
#543=CARTESIAN_POINT('Ctrl Pts',(2.59807621135332,1.5,0.6));
#544=CARTESIAN_POINT('',(-3.,-3.67394039744206E-16,0.6));
#545=CARTESIAN_POINT('Origin',(0.,0.,0.6));
#546=CARTESIAN_POINT('',(-2.59807621135332,1.5,0.6));
#547=CARTESIAN_POINT('Origin',(0.,0.,0.6));
#548=CARTESIAN_POINT('',(-1.87349939951952,1.5,0.));
#549=CARTESIAN_POINT('Ctrl Pts',(-2.59807621135332,1.5,0.6));
#550=CARTESIAN_POINT('Ctrl Pts',(-2.19553353811259,1.5,0.251387818866247));
#551=CARTESIAN_POINT('Ctrl Pts',(-1.87349939951952,1.5,-3.46944695195361E-17));
#552=CARTESIAN_POINT('Origin',(0.,0.,0.));
#553=CARTESIAN_POINT('Origin',(0.,0.,0.));
#554=CARTESIAN_POINT('',(-3.,-3.67394039744206E-16,15.));
#555=CARTESIAN_POINT('Origin',(0.,0.,15.));
#556=CARTESIAN_POINT('',(-3.,-3.67394039744206E-16,0.));
#557=CARTESIAN_POINT('',(2.59807621135332,1.5,9.));
#558=CARTESIAN_POINT('',(2.59807621135332,1.5,0.));
#559=CARTESIAN_POINT('',(-2.59807621135332,1.5,9.));
#560=CARTESIAN_POINT('Origin',(0.,0.,9.));
#561=CARTESIAN_POINT('',(-2.59807621135332,1.5,0.));
#562=CARTESIAN_POINT('Origin',(-4.55500970248725,1.5,0.));
#563=CARTESIAN_POINT('',(-4.55500970248725,1.5,9.));
#564=CARTESIAN_POINT('',(-2.27750485124362,1.5,0.));
#565=CARTESIAN_POINT('Origin',(-0.0296291174700813,3.17795010455693,9.));
#566=CARTESIAN_POINT('Origin',(0.,0.,0.));
#567=CARTESIAN_POINT('Origin',(1.63566958900241,0.,26.));
#568=CARTESIAN_POINT('',(-1.09658560997307,0.6,26.));
#569=CARTESIAN_POINT('',(-0.360555127546399,0.6,26.));
#570=CARTESIAN_POINT('',(1.36612759948774,0.6,26.));
#571=CARTESIAN_POINT('',(-1.09658560997307,-0.6,26.));
#572=CARTESIAN_POINT('Origin',(0.,0.,26.));
#573=CARTESIAN_POINT('',(-0.360555127546399,-0.6,26.));
#574=CARTESIAN_POINT('',(0.269541989514673,-0.6,26.));
#575=CARTESIAN_POINT('Origin',(0.,0.,26.));
#576=CARTESIAN_POINT('Origin',(0.7,0.,26.6));
#577=CARTESIAN_POINT('',(-0.360555127546399,0.6,26.6));
#578=CARTESIAN_POINT('',(-1.09658560997307,0.6,26.6));
#579=CARTESIAN_POINT('',(0.898292804986533,0.6,26.6));
#580=CARTESIAN_POINT('',(-0.360555127546399,-0.6,26.6));
#581=CARTESIAN_POINT('Origin',(0.,0.,26.6));
#582=CARTESIAN_POINT('',(-1.09658560997307,-0.6,26.6));
#583=CARTESIAN_POINT('',(-0.198292804986533,-0.6,26.6));
#584=CARTESIAN_POINT('Origin',(0.,0.,26.6));
#585=CARTESIAN_POINT('Origin',(0.7,0.,26.6));
#586=CARTESIAN_POINT('',(0.360555127546399,-0.6,26.6));
#587=CARTESIAN_POINT('',(1.09658560997307,-0.6,26.6));
#588=CARTESIAN_POINT('',(-0.198292804986533,-0.6,26.6));
#589=CARTESIAN_POINT('',(0.360555127546399,0.6,26.6));
#590=CARTESIAN_POINT('Origin',(0.,0.,26.6));
#591=CARTESIAN_POINT('',(1.09658560997307,0.6,26.6));
#592=CARTESIAN_POINT('',(0.898292804986533,0.6,26.6));
#593=CARTESIAN_POINT('Origin',(0.,0.,26.6));
#594=CARTESIAN_POINT('Origin',(0.,0.,26.3));
#595=CARTESIAN_POINT('',(-0.360555127546399,0.6,26.3));
#596=CARTESIAN_POINT('',(-0.360555127546399,-0.6,26.3));
#597=CARTESIAN_POINT('Origin',(0.,0.,26.3));
#598=CARTESIAN_POINT('',(0.360555127546399,-0.6,26.));
#599=CARTESIAN_POINT('',(0.360555127546399,-0.6,26.3));
#600=CARTESIAN_POINT('',(0.360555127546399,0.6,26.));
#601=CARTESIAN_POINT('Origin',(0.,0.,26.));
#602=CARTESIAN_POINT('',(0.360555127546399,0.6,26.3));
#603=CARTESIAN_POINT('Origin',(1.63566958900241,0.,26.));
#604=CARTESIAN_POINT('',(1.09658560997307,-0.6,26.));
#605=CARTESIAN_POINT('',(0.269541989514673,-0.6,26.));
#606=CARTESIAN_POINT('',(1.09658560997307,0.6,26.));
#607=CARTESIAN_POINT('Origin',(0.,0.,26.));
#608=CARTESIAN_POINT('',(1.36612759948774,0.6,26.));
#609=CARTESIAN_POINT('Origin',(0.,0.,21.));
#610=CARTESIAN_POINT('',(1.09658560997307,0.6,27.5));
#611=CARTESIAN_POINT('',(1.09658560997307,0.6,21.));
#612=CARTESIAN_POINT('',(1.09658560997307,-0.6,27.5));
#613=CARTESIAN_POINT('Origin',(0.,0.,27.5));
#614=CARTESIAN_POINT('',(1.09658560997307,-0.6,21.));
#615=CARTESIAN_POINT('Origin',(-1.09658560997307,-0.6,21.));
#616=CARTESIAN_POINT('',(-1.09658560997307,-0.6,27.5));
#617=CARTESIAN_POINT('',(-3.60088903875928,-0.6,27.5));
#618=CARTESIAN_POINT('',(-1.09658560997307,-0.6,21.));
#619=CARTESIAN_POINT('',(-1.09658560997307,-0.6,21.));
#620=CARTESIAN_POINT('',(-1.09658560997307,-0.6,21.));
#621=CARTESIAN_POINT('',(1.09658560997307,-0.6,21.));
#622=CARTESIAN_POINT('',(-0.548292804986533,-0.6,21.));
#623=CARTESIAN_POINT('',(1.09658560997307,-0.6,21.));
#624=CARTESIAN_POINT('Origin',(0.,0.,21.));
#625=CARTESIAN_POINT('',(-1.09658560997307,0.6,27.5));
#626=CARTESIAN_POINT('Origin',(0.,0.,27.5));
#627=CARTESIAN_POINT('',(-1.09658560997307,0.6,21.));
#628=CARTESIAN_POINT('Origin',(1.09658560997307,0.6,21.));
#629=CARTESIAN_POINT('',(1.09658560997307,0.6,21.));
#630=CARTESIAN_POINT('',(1.09658560997307,0.6,21.));
#631=CARTESIAN_POINT('',(-1.09658560997307,0.6,21.));
#632=CARTESIAN_POINT('',(0.548292804986533,0.6,21.));
#633=CARTESIAN_POINT('',(-1.09658560997307,0.6,21.));
#634=CARTESIAN_POINT('',(-3.60088903875928,0.6,27.5));
#635=CARTESIAN_POINT('Origin',(0.,0.,21.));
#636=CARTESIAN_POINT('Origin',(0.,0.,21.));
#637=CARTESIAN_POINT('Origin',(0.,0.,21.));
#638=CARTESIAN_POINT('Origin',(0.,0.,21.));
#639=CARTESIAN_POINT('Origin',(0.,0.,27.5));
#640=CARTESIAN_POINT('Origin',(0.,0.,15.));
#641=CARTESIAN_POINT('',(-1.75,-2.14313189850787E-16,21.));
#642=CARTESIAN_POINT('Origin',(0.,0.,21.));
#643=CARTESIAN_POINT('',(-1.75,-2.14313189850787E-16,15.));
#644=CARTESIAN_POINT('',(-1.75,-2.14313189850787E-16,15.));
#645=CARTESIAN_POINT('Origin',(0.,0.,15.));
#646=CARTESIAN_POINT('Origin',(0.,0.,21.));
#647=CARTESIAN_POINT('Origin',(0.,0.,15.));
#648=UNCERTAINTY_MEASURE_WITH_UNIT(LENGTH_MEASURE(0.01),#652,
'DISTANCE_ACCURACY_VALUE',
'Maximum model space distance between geometric entities at asserted c
onnectivities');
#649=UNCERTAINTY_MEASURE_WITH_UNIT(LENGTH_MEASURE(0.01),#652,
'DISTANCE_ACCURACY_VALUE',
'Maximum model space distance between geometric entities at asserted c
onnectivities');
#650=(
GEOMETRIC_REPRESENTATION_CONTEXT(3)
GLOBAL_UNCERTAINTY_ASSIGNED_CONTEXT((#648))
GLOBAL_UNIT_ASSIGNED_CONTEXT((#652,#654,#655))
REPRESENTATION_CONTEXT('','3D')
);
#651=(
GEOMETRIC_REPRESENTATION_CONTEXT(3)
GLOBAL_UNCERTAINTY_ASSIGNED_CONTEXT((#649))
GLOBAL_UNIT_ASSIGNED_CONTEXT((#652,#654,#655))
REPRESENTATION_CONTEXT('','3D')
);
#652=(
LENGTH_UNIT()
NAMED_UNIT(*)
SI_UNIT(.MILLI.,.METRE.)
);
#653=(
LENGTH_UNIT()
NAMED_UNIT(*)
SI_UNIT($,.METRE.)
);
#654=(
NAMED_UNIT(*)
PLANE_ANGLE_UNIT()
SI_UNIT($,.RADIAN.)
);
#655=(
NAMED_UNIT(*)
SI_UNIT($,.STERADIAN.)
SOLID_ANGLE_UNIT()
);
#656=SHAPE_DEFINITION_REPRESENTATION(#657,#658);
#657=PRODUCT_DEFINITION_SHAPE('',$,#660);
#658=SHAPE_REPRESENTATION('',(#384),#650);
#659=PRODUCT_DEFINITION_CONTEXT('part definition',#664,'design');
#660=PRODUCT_DEFINITION('axe poign\X\E9e fauteuille roulant',
'axe poign\X\E9e fauteuille roulant v1',#661,#659);
#661=PRODUCT_DEFINITION_FORMATION('',$,#666);
#662=PRODUCT_RELATED_PRODUCT_CATEGORY(
'axe poign\X\E9e fauteuille roulant v1',
'axe poign\X\E9e fauteuille roulant v1',(#666));
#663=APPLICATION_PROTOCOL_DEFINITION('international standard',
'automotive_design',2009,#664);
#664=APPLICATION_CONTEXT(
'Core Data for Automotive Mechanical Design Process');
#665=PRODUCT_CONTEXT('part definition',#664,'mechanical');
#666=PRODUCT('axe poign\X\E9e fauteuille roulant',
'axe poign\X\E9e fauteuille roulant v1',$,(#665));
#667=PRESENTATION_STYLE_ASSIGNMENT((#668));
#668=SURFACE_STYLE_USAGE(.BOTH.,#669);
#669=SURFACE_SIDE_STYLE('',(#670));
#670=SURFACE_STYLE_FILL_AREA(#671);
#671=FILL_AREA_STYLE('Steel - Satin',(#672));
#672=FILL_AREA_STYLE_COLOUR('Steel - Satin',#673);
#673=COLOUR_RGB('Steel - Satin',0.627450980392157,0.627450980392157,0.627450980392157);
ENDSEC;
END-ISO-10303-21;
