ISO-10303-21;
HEADER;
/* Generated by software containing ST-Developer
 * from STEP Tools, Inc. (www.steptools.com) 
 */

FILE_DESCRIPTION(
/* description */ (''),
/* implementation_level */ '2;1');

FILE_NAME(
/* name */ 
'C:/Users/valentin/Desktop/OwnCloud LOMA/RD/Produits - Clients/\X\C9co
uteur - LOMA Innovation/Projet 2018/2 - Elements nomenclature/1 - Barr
ette LM42/Fab soudage de deux plaques/V2/Premier test usinage/Test imp
ression 3D cadre 10.5 mm v1.step',
/* time_stamp */ '2018-12-19T11:33:09+01:00',
/* author */ ('valentin.brisson'),
/* organization */ (''),
/* preprocessor_version */ 'ST-DEVELOPER v17.2',
/* originating_system */ 'Autodesk Translation Framework v7.6.0.251',
/* authorisation */ '');

FILE_SCHEMA (('AUTOMOTIVE_DESIGN { 1 0 10303 214 3 1 1 }'));
ENDSEC;

DATA;
#10=MECHANICAL_DESIGN_GEOMETRIC_PRESENTATION_REPRESENTATION('',(#13),#319);
#11=SHAPE_REPRESENTATION_RELATIONSHIP('SRR','None',#326,#12);
#12=ADVANCED_BREP_SHAPE_REPRESENTATION('',(#14),#318);
#13=STYLED_ITEM('',(#335),#14);
#14=MANIFOLD_SOLID_BREP('Body1',#195);
#15=FACE_BOUND('',#36,.T.);
#16=FACE_BOUND('',#38,.T.);
#17=FACE_OUTER_BOUND('',#27,.T.);
#18=FACE_OUTER_BOUND('',#28,.T.);
#19=FACE_OUTER_BOUND('',#29,.T.);
#20=FACE_OUTER_BOUND('',#30,.T.);
#21=FACE_OUTER_BOUND('',#31,.T.);
#22=FACE_OUTER_BOUND('',#32,.T.);
#23=FACE_OUTER_BOUND('',#33,.T.);
#24=FACE_OUTER_BOUND('',#34,.T.);
#25=FACE_OUTER_BOUND('',#35,.T.);
#26=FACE_OUTER_BOUND('',#37,.T.);
#27=EDGE_LOOP('',(#127,#128,#129,#130));
#28=EDGE_LOOP('',(#131,#132,#133,#134));
#29=EDGE_LOOP('',(#135,#136,#137,#138));
#30=EDGE_LOOP('',(#139,#140,#141,#142));
#31=EDGE_LOOP('',(#143,#144,#145,#146));
#32=EDGE_LOOP('',(#147,#148,#149,#150));
#33=EDGE_LOOP('',(#151,#152,#153,#154));
#34=EDGE_LOOP('',(#155,#156,#157,#158));
#35=EDGE_LOOP('',(#159,#160,#161,#162));
#36=EDGE_LOOP('',(#163,#164,#165,#166));
#37=EDGE_LOOP('',(#167,#168,#169,#170));
#38=EDGE_LOOP('',(#171,#172,#173,#174));
#39=LINE('',#269,#63);
#40=LINE('',#271,#64);
#41=LINE('',#273,#65);
#42=LINE('',#274,#66);
#43=LINE('',#277,#67);
#44=LINE('',#279,#68);
#45=LINE('',#280,#69);
#46=LINE('',#283,#70);
#47=LINE('',#285,#71);
#48=LINE('',#286,#72);
#49=LINE('',#288,#73);
#50=LINE('',#289,#74);
#51=LINE('',#293,#75);
#52=LINE('',#295,#76);
#53=LINE('',#297,#77);
#54=LINE('',#298,#78);
#55=LINE('',#301,#79);
#56=LINE('',#303,#80);
#57=LINE('',#304,#81);
#58=LINE('',#307,#82);
#59=LINE('',#309,#83);
#60=LINE('',#310,#84);
#61=LINE('',#312,#85);
#62=LINE('',#313,#86);
#63=VECTOR('',#223,10.);
#64=VECTOR('',#224,10.);
#65=VECTOR('',#225,10.);
#66=VECTOR('',#226,10.);
#67=VECTOR('',#229,10.);
#68=VECTOR('',#230,10.);
#69=VECTOR('',#231,10.);
#70=VECTOR('',#234,10.);
#71=VECTOR('',#235,10.);
#72=VECTOR('',#236,10.);
#73=VECTOR('',#239,10.);
#74=VECTOR('',#240,10.);
#75=VECTOR('',#243,10.);
#76=VECTOR('',#244,10.);
#77=VECTOR('',#245,10.);
#78=VECTOR('',#246,10.);
#79=VECTOR('',#249,10.);
#80=VECTOR('',#250,10.);
#81=VECTOR('',#251,10.);
#82=VECTOR('',#254,10.);
#83=VECTOR('',#255,10.);
#84=VECTOR('',#256,10.);
#85=VECTOR('',#259,10.);
#86=VECTOR('',#260,10.);
#87=VERTEX_POINT('',#267);
#88=VERTEX_POINT('',#268);
#89=VERTEX_POINT('',#270);
#90=VERTEX_POINT('',#272);
#91=VERTEX_POINT('',#276);
#92=VERTEX_POINT('',#278);
#93=VERTEX_POINT('',#282);
#94=VERTEX_POINT('',#284);
#95=VERTEX_POINT('',#291);
#96=VERTEX_POINT('',#292);
#97=VERTEX_POINT('',#294);
#98=VERTEX_POINT('',#296);
#99=VERTEX_POINT('',#300);
#100=VERTEX_POINT('',#302);
#101=VERTEX_POINT('',#306);
#102=VERTEX_POINT('',#308);
#103=EDGE_CURVE('',#87,#88,#39,.T.);
#104=EDGE_CURVE('',#88,#89,#40,.T.);
#105=EDGE_CURVE('',#90,#89,#41,.T.);
#106=EDGE_CURVE('',#87,#90,#42,.T.);
#107=EDGE_CURVE('',#91,#87,#43,.T.);
#108=EDGE_CURVE('',#92,#90,#44,.T.);
#109=EDGE_CURVE('',#91,#92,#45,.T.);
#110=EDGE_CURVE('',#93,#91,#46,.T.);
#111=EDGE_CURVE('',#94,#92,#47,.T.);
#112=EDGE_CURVE('',#93,#94,#48,.T.);
#113=EDGE_CURVE('',#88,#93,#49,.T.);
#114=EDGE_CURVE('',#89,#94,#50,.T.);
#115=EDGE_CURVE('',#95,#96,#51,.T.);
#116=EDGE_CURVE('',#96,#97,#52,.T.);
#117=EDGE_CURVE('',#98,#97,#53,.T.);
#118=EDGE_CURVE('',#95,#98,#54,.T.);
#119=EDGE_CURVE('',#99,#95,#55,.T.);
#120=EDGE_CURVE('',#100,#98,#56,.T.);
#121=EDGE_CURVE('',#99,#100,#57,.T.);
#122=EDGE_CURVE('',#101,#99,#58,.T.);
#123=EDGE_CURVE('',#102,#100,#59,.T.);
#124=EDGE_CURVE('',#101,#102,#60,.T.);
#125=EDGE_CURVE('',#96,#101,#61,.T.);
#126=EDGE_CURVE('',#97,#102,#62,.T.);
#127=ORIENTED_EDGE('',*,*,#103,.T.);
#128=ORIENTED_EDGE('',*,*,#104,.T.);
#129=ORIENTED_EDGE('',*,*,#105,.F.);
#130=ORIENTED_EDGE('',*,*,#106,.F.);
#131=ORIENTED_EDGE('',*,*,#107,.T.);
#132=ORIENTED_EDGE('',*,*,#106,.T.);
#133=ORIENTED_EDGE('',*,*,#108,.F.);
#134=ORIENTED_EDGE('',*,*,#109,.F.);
#135=ORIENTED_EDGE('',*,*,#110,.T.);
#136=ORIENTED_EDGE('',*,*,#109,.T.);
#137=ORIENTED_EDGE('',*,*,#111,.F.);
#138=ORIENTED_EDGE('',*,*,#112,.F.);
#139=ORIENTED_EDGE('',*,*,#113,.T.);
#140=ORIENTED_EDGE('',*,*,#112,.T.);
#141=ORIENTED_EDGE('',*,*,#114,.F.);
#142=ORIENTED_EDGE('',*,*,#104,.F.);
#143=ORIENTED_EDGE('',*,*,#115,.T.);
#144=ORIENTED_EDGE('',*,*,#116,.T.);
#145=ORIENTED_EDGE('',*,*,#117,.F.);
#146=ORIENTED_EDGE('',*,*,#118,.F.);
#147=ORIENTED_EDGE('',*,*,#119,.T.);
#148=ORIENTED_EDGE('',*,*,#118,.T.);
#149=ORIENTED_EDGE('',*,*,#120,.F.);
#150=ORIENTED_EDGE('',*,*,#121,.F.);
#151=ORIENTED_EDGE('',*,*,#122,.T.);
#152=ORIENTED_EDGE('',*,*,#121,.T.);
#153=ORIENTED_EDGE('',*,*,#123,.F.);
#154=ORIENTED_EDGE('',*,*,#124,.F.);
#155=ORIENTED_EDGE('',*,*,#125,.T.);
#156=ORIENTED_EDGE('',*,*,#124,.T.);
#157=ORIENTED_EDGE('',*,*,#126,.F.);
#158=ORIENTED_EDGE('',*,*,#116,.F.);
#159=ORIENTED_EDGE('',*,*,#126,.T.);
#160=ORIENTED_EDGE('',*,*,#123,.T.);
#161=ORIENTED_EDGE('',*,*,#120,.T.);
#162=ORIENTED_EDGE('',*,*,#117,.T.);
#163=ORIENTED_EDGE('',*,*,#114,.T.);
#164=ORIENTED_EDGE('',*,*,#111,.T.);
#165=ORIENTED_EDGE('',*,*,#108,.T.);
#166=ORIENTED_EDGE('',*,*,#105,.T.);
#167=ORIENTED_EDGE('',*,*,#125,.F.);
#168=ORIENTED_EDGE('',*,*,#115,.F.);
#169=ORIENTED_EDGE('',*,*,#119,.F.);
#170=ORIENTED_EDGE('',*,*,#122,.F.);
#171=ORIENTED_EDGE('',*,*,#113,.F.);
#172=ORIENTED_EDGE('',*,*,#103,.F.);
#173=ORIENTED_EDGE('',*,*,#107,.F.);
#174=ORIENTED_EDGE('',*,*,#110,.F.);
#175=PLANE('',#209);
#176=PLANE('',#210);
#177=PLANE('',#211);
#178=PLANE('',#212);
#179=PLANE('',#213);
#180=PLANE('',#214);
#181=PLANE('',#215);
#182=PLANE('',#216);
#183=PLANE('',#217);
#184=PLANE('',#218);
#185=ADVANCED_FACE('',(#17),#175,.T.);
#186=ADVANCED_FACE('',(#18),#176,.T.);
#187=ADVANCED_FACE('',(#19),#177,.T.);
#188=ADVANCED_FACE('',(#20),#178,.T.);
#189=ADVANCED_FACE('',(#21),#179,.T.);
#190=ADVANCED_FACE('',(#22),#180,.T.);
#191=ADVANCED_FACE('',(#23),#181,.T.);
#192=ADVANCED_FACE('',(#24),#182,.T.);
#193=ADVANCED_FACE('',(#25,#15),#183,.T.);
#194=ADVANCED_FACE('',(#26,#16),#184,.F.);
#195=CLOSED_SHELL('',(#185,#186,#187,#188,#189,#190,#191,#192,#193,#194));
#196=DERIVED_UNIT_ELEMENT(#198,1.);
#197=DERIVED_UNIT_ELEMENT(#321,3.);
#198=(
MASS_UNIT()
NAMED_UNIT(*)
SI_UNIT(.KILO.,.GRAM.)
);
#199=DERIVED_UNIT((#196,#197));
#200=MEASURE_REPRESENTATION_ITEM('density measure',
POSITIVE_RATIO_MEASURE(7850.),#199);
#201=PROPERTY_DEFINITION_REPRESENTATION(#206,#203);
#202=PROPERTY_DEFINITION_REPRESENTATION(#207,#204);
#203=REPRESENTATION('material name',(#205),#318);
#204=REPRESENTATION('density',(#200),#318);
#205=DESCRIPTIVE_REPRESENTATION_ITEM('Steel','Steel');
#206=PROPERTY_DEFINITION('material property','material name',#328);
#207=PROPERTY_DEFINITION('material property','density of part',#328);
#208=AXIS2_PLACEMENT_3D('placement',#265,#219,#220);
#209=AXIS2_PLACEMENT_3D('',#266,#221,#222);
#210=AXIS2_PLACEMENT_3D('',#275,#227,#228);
#211=AXIS2_PLACEMENT_3D('',#281,#232,#233);
#212=AXIS2_PLACEMENT_3D('',#287,#237,#238);
#213=AXIS2_PLACEMENT_3D('',#290,#241,#242);
#214=AXIS2_PLACEMENT_3D('',#299,#247,#248);
#215=AXIS2_PLACEMENT_3D('',#305,#252,#253);
#216=AXIS2_PLACEMENT_3D('',#311,#257,#258);
#217=AXIS2_PLACEMENT_3D('',#314,#261,#262);
#218=AXIS2_PLACEMENT_3D('',#315,#263,#264);
#219=DIRECTION('axis',(0.,0.,1.));
#220=DIRECTION('refdir',(1.,0.,0.));
#221=DIRECTION('center_axis',(-1.,0.,0.));
#222=DIRECTION('ref_axis',(0.,0.,1.));
#223=DIRECTION('',(0.,0.,1.));
#224=DIRECTION('',(0.,1.,0.));
#225=DIRECTION('',(0.,0.,1.));
#226=DIRECTION('',(0.,1.,0.));
#227=DIRECTION('center_axis',(0.,0.,1.));
#228=DIRECTION('ref_axis',(1.,0.,0.));
#229=DIRECTION('',(1.,0.,0.));
#230=DIRECTION('',(1.,0.,0.));
#231=DIRECTION('',(0.,1.,0.));
#232=DIRECTION('center_axis',(1.,0.,0.));
#233=DIRECTION('ref_axis',(0.,0.,-1.));
#234=DIRECTION('',(0.,0.,-1.));
#235=DIRECTION('',(0.,0.,-1.));
#236=DIRECTION('',(0.,1.,0.));
#237=DIRECTION('center_axis',(0.,0.,-1.));
#238=DIRECTION('ref_axis',(-1.,0.,0.));
#239=DIRECTION('',(-1.,0.,0.));
#240=DIRECTION('',(-1.,0.,0.));
#241=DIRECTION('center_axis',(-1.,0.,0.));
#242=DIRECTION('ref_axis',(0.,0.,1.));
#243=DIRECTION('',(0.,0.,1.));
#244=DIRECTION('',(0.,1.,0.));
#245=DIRECTION('',(0.,0.,1.));
#246=DIRECTION('',(0.,1.,0.));
#247=DIRECTION('center_axis',(0.,0.,-1.));
#248=DIRECTION('ref_axis',(-1.,0.,0.));
#249=DIRECTION('',(-1.,0.,0.));
#250=DIRECTION('',(-1.,0.,0.));
#251=DIRECTION('',(0.,1.,0.));
#252=DIRECTION('center_axis',(1.,0.,0.));
#253=DIRECTION('ref_axis',(0.,0.,-1.));
#254=DIRECTION('',(0.,0.,-1.));
#255=DIRECTION('',(0.,0.,-1.));
#256=DIRECTION('',(0.,1.,0.));
#257=DIRECTION('center_axis',(0.,0.,1.));
#258=DIRECTION('ref_axis',(1.,0.,0.));
#259=DIRECTION('',(1.,0.,0.));
#260=DIRECTION('',(1.,0.,0.));
#261=DIRECTION('center_axis',(0.,1.,0.));
#262=DIRECTION('ref_axis',(0.,0.,1.));
#263=DIRECTION('center_axis',(0.,1.,0.));
#264=DIRECTION('ref_axis',(1.,0.,0.));
#265=CARTESIAN_POINT('',(0.,0.,0.));
#266=CARTESIAN_POINT('Origin',(54.4982787536675,0.,0.));
#267=CARTESIAN_POINT('',(54.4982787536675,0.,0.));
#268=CARTESIAN_POINT('',(54.4982787536675,0.,61.));
#269=CARTESIAN_POINT('',(54.4982787536675,0.,61.));
#270=CARTESIAN_POINT('',(54.4982787536675,10.5,61.));
#271=CARTESIAN_POINT('',(54.4982787536675,0.,61.));
#272=CARTESIAN_POINT('',(54.4982787536675,10.5,0.));
#273=CARTESIAN_POINT('',(54.4982787536675,10.5,61.));
#274=CARTESIAN_POINT('',(54.4982787536675,0.,0.));
#275=CARTESIAN_POINT('Origin',(4.49827875366747,0.,0.));
#276=CARTESIAN_POINT('',(4.49827875366747,0.,0.));
#277=CARTESIAN_POINT('',(4.49827875366747,0.,0.));
#278=CARTESIAN_POINT('',(4.49827875366747,10.5,0.));
#279=CARTESIAN_POINT('',(4.49827875366747,10.5,0.));
#280=CARTESIAN_POINT('',(4.49827875366747,0.,0.));
#281=CARTESIAN_POINT('Origin',(4.49827875366747,0.,61.));
#282=CARTESIAN_POINT('',(4.49827875366747,0.,61.));
#283=CARTESIAN_POINT('',(4.49827875366747,0.,61.));
#284=CARTESIAN_POINT('',(4.49827875366747,10.5,61.));
#285=CARTESIAN_POINT('',(4.49827875366747,10.5,61.));
#286=CARTESIAN_POINT('',(4.49827875366747,0.,61.));
#287=CARTESIAN_POINT('Origin',(54.4982787536675,0.,61.));
#288=CARTESIAN_POINT('',(4.49827875366747,0.,61.));
#289=CARTESIAN_POINT('',(4.49827875366747,10.5,61.));
#290=CARTESIAN_POINT('Origin',(-0.501719085664156,0.,-5.00000007450581));
#291=CARTESIAN_POINT('',(-0.501719085664156,0.,-5.00000007450581));
#292=CARTESIAN_POINT('',(-0.501719085664156,0.,66.0000009834766));
#293=CARTESIAN_POINT('',(-0.501719085664156,0.,-5.00000007450581));
#294=CARTESIAN_POINT('',(-0.501719085664156,10.5,66.0000009834766));
#295=CARTESIAN_POINT('',(-0.501719085664156,0.,66.0000009834766));
#296=CARTESIAN_POINT('',(-0.501719085664156,10.5,-5.00000007450581));
#297=CARTESIAN_POINT('',(-0.501719085664156,10.5,-5.00000007450581));
#298=CARTESIAN_POINT('',(-0.501719085664156,0.,-5.00000007450581));
#299=CARTESIAN_POINT('Origin',(59.4982818084055,0.,-5.00000007450581));
#300=CARTESIAN_POINT('',(59.4982818084055,0.,-5.00000007450581));
#301=CARTESIAN_POINT('',(59.4982818084055,0.,-5.00000007450581));
#302=CARTESIAN_POINT('',(59.4982818084055,10.5,-5.00000007450581));
#303=CARTESIAN_POINT('',(59.4982818084055,10.5,-5.00000007450581));
#304=CARTESIAN_POINT('',(59.4982818084055,0.,-5.00000007450581));
#305=CARTESIAN_POINT('Origin',(59.4982818084055,0.,66.0000009834766));
#306=CARTESIAN_POINT('',(59.4982818084055,0.,66.0000009834766));
#307=CARTESIAN_POINT('',(59.4982818084055,0.,66.0000009834766));
#308=CARTESIAN_POINT('',(59.4982818084055,10.5,66.0000009834766));
#309=CARTESIAN_POINT('',(59.4982818084055,10.5,66.0000009834766));
#310=CARTESIAN_POINT('',(59.4982818084055,0.,66.0000009834766));
#311=CARTESIAN_POINT('Origin',(-0.501719085664156,0.,66.0000009834766));
#312=CARTESIAN_POINT('',(-0.501719085664156,0.,66.0000009834766));
#313=CARTESIAN_POINT('',(-0.501719085664156,10.5,66.0000009834766));
#314=CARTESIAN_POINT('Origin',(29.4982813613707,10.5,30.5000004544854));
#315=CARTESIAN_POINT('Origin',(29.4982813613707,0.,30.5000004544854));
#316=UNCERTAINTY_MEASURE_WITH_UNIT(LENGTH_MEASURE(0.01),#320,
'DISTANCE_ACCURACY_VALUE',
'Maximum model space distance between geometric entities at asserted c
onnectivities');
#317=UNCERTAINTY_MEASURE_WITH_UNIT(LENGTH_MEASURE(0.01),#320,
'DISTANCE_ACCURACY_VALUE',
'Maximum model space distance between geometric entities at asserted c
onnectivities');
#318=(
GEOMETRIC_REPRESENTATION_CONTEXT(3)
GLOBAL_UNCERTAINTY_ASSIGNED_CONTEXT((#316))
GLOBAL_UNIT_ASSIGNED_CONTEXT((#320,#322,#323))
REPRESENTATION_CONTEXT('','3D')
);
#319=(
GEOMETRIC_REPRESENTATION_CONTEXT(3)
GLOBAL_UNCERTAINTY_ASSIGNED_CONTEXT((#317))
GLOBAL_UNIT_ASSIGNED_CONTEXT((#320,#322,#323))
REPRESENTATION_CONTEXT('','3D')
);
#320=(
LENGTH_UNIT()
NAMED_UNIT(*)
SI_UNIT(.MILLI.,.METRE.)
);
#321=(
LENGTH_UNIT()
NAMED_UNIT(*)
SI_UNIT($,.METRE.)
);
#322=(
NAMED_UNIT(*)
PLANE_ANGLE_UNIT()
SI_UNIT($,.RADIAN.)
);
#323=(
NAMED_UNIT(*)
SI_UNIT($,.STERADIAN.)
SOLID_ANGLE_UNIT()
);
#324=SHAPE_DEFINITION_REPRESENTATION(#325,#326);
#325=PRODUCT_DEFINITION_SHAPE('',$,#328);
#326=SHAPE_REPRESENTATION('',(#208),#318);
#327=PRODUCT_DEFINITION_CONTEXT('part definition',#332,'design');
#328=PRODUCT_DEFINITION('Test impression 3D cadre 10.5 mm',
'Test impression 3D cadre 10.5 mm v1',#329,#327);
#329=PRODUCT_DEFINITION_FORMATION('',$,#334);
#330=PRODUCT_RELATED_PRODUCT_CATEGORY(
'Test impression 3D cadre 10.5 mm v1',
'Test impression 3D cadre 10.5 mm v1',(#334));
#331=APPLICATION_PROTOCOL_DEFINITION('international standard',
'automotive_design',2009,#332);
#332=APPLICATION_CONTEXT(
'Core Data for Automotive Mechanical Design Process');
#333=PRODUCT_CONTEXT('part definition',#332,'mechanical');
#334=PRODUCT('Test impression 3D cadre 10.5 mm',
'Test impression 3D cadre 10.5 mm v1',$,(#333));
#335=PRESENTATION_STYLE_ASSIGNMENT((#336));
#336=SURFACE_STYLE_USAGE(.BOTH.,#337);
#337=SURFACE_SIDE_STYLE('',(#338));
#338=SURFACE_STYLE_FILL_AREA(#339);
#339=FILL_AREA_STYLE('Steel - Satin',(#340));
#340=FILL_AREA_STYLE_COLOUR('Steel - Satin',#341);
#341=COLOUR_RGB('Steel - Satin',0.627450980392157,0.627450980392157,0.627450980392157);
ENDSEC;
END-ISO-10303-21;
