ISO-10303-21;
HEADER;
FILE_DESCRIPTION (( 'STEP AP203' ),
    '1' );
FILE_NAME ('Plaque chevalet.STEP',
    '2018-12-27T11:18:54',
    ( '' ),
    ( '' ),
    'SwSTEP 2.0',
    'SolidWorks 2017',
    '' );
FILE_SCHEMA (( 'CONFIG_CONTROL_DESIGN' ));
ENDSEC;

DATA;
#1 = CIRCLE ( 'NONE', #248, 6.000000000000025800 ) ;
#2 = ORIENTED_EDGE ( 'NONE', *, *, #234, .F. ) ;
#3 = CARTESIAN_POINT ( 'NONE',  ( 28.65425559449774800, 137.9999999999997700, 1.250000000000000000 ) ) ;
#4 = COORDINATED_UNIVERSAL_TIME_OFFSET ( 1, 0, .AHEAD. ) ;
#5 = CIRCLE ( 'NONE', #161, 21.00000000000001400 ) ;
#6 = EDGE_CURVE ( 'NONE', #121, #287, #1, .T. ) ;
#7 = ORIENTED_EDGE ( 'NONE', *, *, #345, .T. ) ;
#8 = DIRECTION ( 'NONE',  ( 1.000000000000000000, 0.0000000000000000000, 0.0000000000000000000 ) ) ;
#9 = DIRECTION ( 'NONE',  ( 1.000000000000000000, 0.0000000000000000000, 0.0000000000000000000 ) ) ;
#10 = CARTESIAN_POINT ( 'NONE',  ( -48.78661549762024000, 137.2468767958839900, 1.250000000000000000 ) ) ;
#11 = AXIS2_PLACEMENT_3D ( 'NONE', #127, #304, #8 ) ;
#12 = VECTOR ( 'NONE', #38, 1000.000000000000000 ) ;
#13 = ORIENTED_EDGE ( 'NONE', *, *, #113, .F. ) ;
#14 = CALENDAR_DATE ( 2018, 27, 12 ) ;
#15 = ORIENTED_EDGE ( 'NONE', *, *, #136, .T. ) ;
#16 = DIRECTION ( 'NONE',  ( 1.000000000000000000, 0.0000000000000000000, 0.0000000000000000000 ) ) ;
#17 = SECURITY_CLASSIFICATION ( '', '', #271 ) ;
#18 = AXIS2_PLACEMENT_3D ( 'NONE', #250, #247, #301 ) ;
#19 = DIRECTION ( 'NONE',  ( 0.0000000000000000000, 0.0000000000000000000, 1.000000000000000000 ) ) ;
#20 = EDGE_CURVE ( 'NONE', #56, #185, #165, .T. ) ;
#21 = DIRECTION ( 'NONE',  ( 1.000000000000000000, 0.0000000000000000000, 0.0000000000000000000 ) ) ;
#22 = CALENDAR_DATE ( 2018, 27, 12 ) ;
#23 = LINE ( 'NONE', #249, #264 ) ;
#24 = ORIENTED_EDGE ( 'NONE', *, *, #274, .T. ) ;
#25 = DIRECTION ( 'NONE',  ( 0.0000000000000000000, 0.0000000000000000000, 1.000000000000000000 ) ) ;
#26 = CARTESIAN_POINT ( 'NONE',  ( -1.860717385485326800E-012, 163.5856943200696500, 1.250000000000000000 ) ) ;
#27 = CC_DESIGN_PERSON_AND_ORGANIZATION_ASSIGNMENT ( #160, #194, ( #106 ) ) ;
#28 = PERSON_AND_ORGANIZATION_ROLE ( 'classification_officer' ) ;
#29 = DATE_AND_TIME ( #109, #53 ) ;
#30 = ORIENTED_EDGE ( 'NONE', *, *, #331, .F. ) ;
#31 = ORIENTED_EDGE ( 'NONE', *, *, #97, .T. ) ;
#32 = APPLICATION_PROTOCOL_DEFINITION ( 'international standard', 'config_control_design', 1994, #89 ) ;
#33 = COORDINATED_UNIVERSAL_TIME_OFFSET ( 1, 0, .AHEAD. ) ;
#34 = VECTOR ( 'NONE', #311, 1000.000000000000000 ) ;
#35 = ORIENTED_EDGE ( 'NONE', *, *, #335, .F. ) ;
#36 = CARTESIAN_POINT ( 'NONE',  ( 28.65425559449774800, 137.9999999999997700, 2.500000000000000000 ) ) ;
#37 = DIRECTION ( 'NONE',  ( 1.000000000000000000, 0.0000000000000000000, 0.0000000000000000000 ) ) ;
#38 = DIRECTION ( 'NONE',  ( 0.0000000000000000000, 0.0000000000000000000, 1.000000000000000000 ) ) ;
#39 = ORIENTED_EDGE ( 'NONE', *, *, #337, .T. ) ;
#40 = ORIENTED_EDGE ( 'NONE', *, *, #299, .T. ) ;
#41 = CARTESIAN_POINT ( 'NONE',  ( 28.65425559449774800, 137.9999999999997700, 1.250000000000000000 ) ) ;
#42 = PLANE ( 'NONE',  #82 ) ;
#43 = DESIGN_CONTEXT ( 'detailed design', #89, 'design' ) ;
#44 = CC_DESIGN_SECURITY_CLASSIFICATION ( #17, ( #303 ) ) ;
#45 = FACE_OUTER_BOUND ( 'NONE', #257, .T. ) ;
#46 = CARTESIAN_POINT ( 'NONE',  ( 28.65425559450146100, 158.9999999999998000, 2.500000000000000000 ) ) ;
#47 = AXIS2_PLACEMENT_3D ( 'NONE', #3, #100, #330 ) ;
#48 = ORIENTED_EDGE ( 'NONE', *, *, #80, .T. ) ;
#49 = AXIS2_PLACEMENT_3D ( 'NONE', #78, #167, #312 ) ;
#50 = CARTESIAN_POINT ( 'NONE',  ( -28.65425559450030900, 137.9999999999981800, 1.250000000000000000 ) ) ;
#51 = CARTESIAN_POINT ( 'NONE',  ( 28.65425559449774800, 137.9999999999997700, 1.250000000000000000 ) ) ;
#52 = AXIS2_PLACEMENT_3D ( 'NONE', #329, #181, #326 ) ;
#53 = LOCAL_TIME ( 12, 18, 54.00000000000000000, #33 ) ;
#54 = APPLICATION_CONTEXT ( 'configuration controlled 3d designs of mechanical parts and assemblies' ) ;
#55 = CARTESIAN_POINT ( 'NONE',  ( 49.50691370593200000, 140.0972713283802000, 2.500000000000000000 ) ) ;
#56 = VERTEX_POINT ( 'NONE', #195 ) ;
#57 = ORIENTED_EDGE ( 'NONE', *, *, #345, .F. ) ;
#58 = EDGE_CURVE ( 'NONE', #114, #87, #147, .T. ) ;
#59 = APPROVAL_ROLE ( '' ) ;
#60 = PERSON_AND_ORGANIZATION_ROLE ( 'creator' ) ;
#61 = DATE_AND_TIME ( #90, #70 ) ;
#62 = ADVANCED_FACE ( 'NONE', ( #63 ), #197, .T. ) ;
#63 = FACE_OUTER_BOUND ( 'NONE', #154, .T. ) ;
#64 = ORIENTED_EDGE ( 'NONE', *, *, #335, .T. ) ;
#65 = ADVANCED_FACE ( 'NONE', ( #67 ), #85, .T. ) ;
#66 = DIRECTION ( 'NONE',  ( 0.0000000000000000000, 0.0000000000000000000, 1.000000000000000000 ) ) ;
#67 = FACE_OUTER_BOUND ( 'NONE', #77, .T. ) ;
#68 = ORIENTED_EDGE ( 'NONE', *, *, #283, .T. ) ;
#69 = DIRECTION ( 'NONE',  ( -2.324729088069475700E-014, 1.000000000000000000, 0.0000000000000000000 ) ) ;
#70 = LOCAL_TIME ( 12, 18, 54.00000000000000000, #133 ) ;
#71 = VECTOR ( 'NONE', #126, 1000.000000000000000 ) ;
#72 = ORIENTED_EDGE ( 'NONE', *, *, #188, .T. ) ;
#73 = CARTESIAN_POINT ( 'NONE',  ( 49.50691370593200000, 140.0972713283802000, 1.250000000000000000 ) ) ;
#74 = CARTESIAN_POINT ( 'NONE',  ( -43.50691370593472100, 140.0972713283784400, 1.250000000000000000 ) ) ;
#75 = EDGE_LOOP ( 'NONE', ( #343, #30, #39, #135 ) ) ;
#76 = ORIENTED_EDGE ( 'NONE', *, *, #113, .T. ) ;
#77 = EDGE_LOOP ( 'NONE', ( #57, #193, #64, #169 ) ) ;
#78 = CARTESIAN_POINT ( 'NONE',  ( -28.65425559450030900, 137.9999999999981800, 1.250000000000000000 ) ) ;
#79 = ORIENTED_EDGE ( 'NONE', *, *, #94, .F. ) ;
#80 = EDGE_CURVE ( 'NONE', #185, #270, #269, .T. ) ;
#81 = CARTESIAN_POINT ( 'NONE',  ( 0.0000000000000000000, 0.0000000000000000000, 0.0000000000000000000 ) ) ;
#82 = AXIS2_PLACEMENT_3D ( 'NONE', #158, #69, #150 ) ;
#83 = CARTESIAN_POINT ( 'NONE',  ( -28.65425559449660000, 158.9999999999984700, 1.250000000000000000 ) ) ;
#84 = DIRECTION ( 'NONE',  ( 0.0000000000000000000, 0.0000000000000000000, 1.000000000000000000 ) ) ;
#85 = CYLINDRICAL_SURFACE ( 'NONE', #189, 55.44246711939145200 ) ;
#86 = DIRECTION ( 'NONE',  ( 0.0000000000000000000, 0.0000000000000000000, 1.000000000000000000 ) ) ;
#87 = VERTEX_POINT ( 'NONE', #323 ) ;
#88 = DIRECTION ( 'NONE',  ( 1.000000000000000000, 0.0000000000000000000, 0.0000000000000000000 ) ) ;
#89 = APPLICATION_CONTEXT ( 'configuration controlled 3d designs of mechanical parts and assemblies' ) ;
#90 = CALENDAR_DATE ( 2018, 27, 12 ) ;
#91 = AXIS2_PLACEMENT_3D ( 'NONE', #215, #111, #21 ) ;
#92 = APPROVAL_ROLE ( '' ) ;
#93 = ADVANCED_FACE ( 'NONE', ( #159 ), #102, .F. ) ;
#94 = EDGE_CURVE ( 'NONE', #291, #246, #281, .T. ) ;
#95 = VECTOR ( 'NONE', #273, 1000.000000000000000 ) ;
#96 = ORIENTED_EDGE ( 'NONE', *, *, #136, .F. ) ;
#97 = EDGE_CURVE ( 'NONE', #121, #291, #216, .T. ) ;
#98 = DIRECTION ( 'NONE',  ( 0.0000000000000000000, 0.0000000000000000000, 1.000000000000000000 ) ) ;
#99 = PERSON_AND_ORGANIZATION ( #308, #186 ) ;
#100 = DIRECTION ( 'NONE',  ( 0.0000000000000000000, 0.0000000000000000000, 1.000000000000000000 ) ) ;
#101 = DIRECTION ( 'NONE',  ( 1.000000000000000000, 0.0000000000000000000, 0.0000000000000000000 ) ) ;
#102 = PLANE ( 'NONE',  #47 ) ;
#103 = ORIENTED_EDGE ( 'NONE', *, *, #254, .F. ) ;
#104 = PERSON_AND_ORGANIZATION ( #308, #186 ) ;
#105 = VERTEX_POINT ( 'NONE', #279 ) ;
#106 = PRODUCT ( 'Plaque chevalet', 'Plaque chevalet', '', ( #241 ) ) ;
#107 =( NAMED_UNIT ( * ) PLANE_ANGLE_UNIT ( ) SI_UNIT ( $, .RADIAN. ) );
#108 = CARTESIAN_POINT ( 'NONE',  ( -49.44797695050856800, 140.9361798597306000, 1.250000000000000000 ) ) ;
#109 = CALENDAR_DATE ( 2018, 27, 12 ) ;
#110 = CYLINDRICAL_SURFACE ( 'NONE', #242, 6.000000000000025800 ) ;
#111 = DIRECTION ( 'NONE',  ( 0.0000000000000000000, 0.0000000000000000000, 1.000000000000000000 ) ) ;
#112 = PERSON_AND_ORGANIZATION ( #308, #186 ) ;
#113 = EDGE_CURVE ( 'NONE', #87, #291, #116, .T. ) ;
#114 = VERTEX_POINT ( 'NONE', #157 ) ;
#115 = LOCAL_TIME ( 12, 18, 54.00000000000000000, #4 ) ;
#116 = CIRCLE ( 'NONE', #255, 6.000000000000025800 ) ;
#117 = ADVANCED_FACE ( 'NONE', ( #277 ), #208, .T. ) ;
#118 = DIRECTION ( 'NONE',  ( 1.000000000000000000, 0.0000000000000000000, -0.0000000000000000000 ) ) ;
#119 = FACE_OUTER_BOUND ( 'NONE', #75, .T. ) ;
#120 = VERTEX_POINT ( 'NONE', #227 ) ;
#121 = VERTEX_POINT ( 'NONE', #73 ) ;
#122 = DIRECTION ( 'NONE',  ( 0.0000000000000000000, 0.0000000000000000000, 1.000000000000000000 ) ) ;
#123 = CC_DESIGN_PERSON_AND_ORGANIZATION_ASSIGNMENT ( #112, #243, ( #303 ) ) ;
#124 = CARTESIAN_POINT ( 'NONE',  ( -28.65425559449660000, 158.9999999999984700, 1.250000000000000000 ) ) ;
#125 = PERSON_AND_ORGANIZATION ( #308, #186 ) ;
#126 = DIRECTION ( 'NONE',  ( -1.000000000000000000, -2.324729088069475400E-014, 0.0000000000000000000 ) ) ;
#127 = CARTESIAN_POINT ( 'NONE',  ( -43.50691370593472100, 140.0972713283784400, 1.250000000000000000 ) ) ;
#128 = CC_DESIGN_DATE_AND_TIME_ASSIGNMENT ( #191, #268, ( #17 ) ) ;
#129 = PERSON_AND_ORGANIZATION ( #308, #186 ) ;
#130 = VECTOR ( 'NONE', #300, 1000.000000000000000 ) ;
#131 = ORIENTED_EDGE ( 'NONE', *, *, #317, .T. ) ;
#132 = DIRECTION ( 'NONE',  ( 0.0000000000000000000, 0.0000000000000000000, 1.000000000000000000 ) ) ;
#133 = COORDINATED_UNIVERSAL_TIME_OFFSET ( 1, 0, .AHEAD. ) ;
#134 = DIRECTION ( 'NONE',  ( 1.000000000000000000, 0.0000000000000000000, 0.0000000000000000000 ) ) ;
#135 = ORIENTED_EDGE ( 'NONE', *, *, #286, .T. ) ;
#136 = EDGE_CURVE ( 'NONE', #105, #213, #333, .T. ) ;
#137 = DIRECTION ( 'NONE',  ( 1.000000000000000000, 0.0000000000000000000, 0.0000000000000000000 ) ) ;
#138 = APPROVAL_PERSON_ORGANIZATION ( #129, #315, #92 ) ;
#139 = FACE_OUTER_BOUND ( 'NONE', #265, .T. ) ;
#140 = EDGE_LOOP ( 'NONE', ( #68, #31, #13, #144 ) ) ;
#141 = PERSON_AND_ORGANIZATION_ROLE ( 'creator' ) ;
#142 = DATE_TIME_ROLE ( 'creation_date' ) ;
#143 = ORIENTED_EDGE ( 'NONE', *, *, #317, .F. ) ;
#144 = ORIENTED_EDGE ( 'NONE', *, *, #58, .F. ) ;
#145 = ADVANCED_FACE ( 'NONE', ( #342 ), #42, .T. ) ;
#146 = LOCAL_TIME ( 12, 18, 54.00000000000000000, #151 ) ;
#147 = LINE ( 'NONE', #149, #95 ) ;
#148 = ORIENTED_EDGE ( 'NONE', *, *, #337, .F. ) ;
#149 = CARTESIAN_POINT ( 'NONE',  ( 48.78661549761751800, 137.2468767958859200, 1.250000000000000000 ) ) ;
#150 = DIRECTION ( 'NONE',  ( -1.000000000000000000, -2.324729088069475700E-014, 0.0000000000000000000 ) ) ;
#151 = COORDINATED_UNIVERSAL_TIME_OFFSET ( 1, 0, .AHEAD. ) ;
#152 = CARTESIAN_POINT ( 'NONE',  ( -43.50691370593472100, 140.0972713283784400, 2.500000000000000000 ) ) ;
#153 = CIRCLE ( 'NONE', #156, 55.44246711939145200 ) ;
#154 = EDGE_LOOP ( 'NONE', ( #24, #48, #72, #346, #7, #76, #260 ) ) ;
#155 = DIRECTION ( 'NONE',  ( 1.000000000000000000, 0.0000000000000000000, 0.0000000000000000000 ) ) ;
#156 = AXIS2_PLACEMENT_3D ( 'NONE', #166, #86, #288 ) ;
#157 = CARTESIAN_POINT ( 'NONE',  ( 48.78661549761751800, 137.2468767958859200, 1.250000000000000000 ) ) ;
#158 = CARTESIAN_POINT ( 'NONE',  ( 28.65425559450146100, 158.9999999999998000, 1.250000000000000000 ) ) ;
#159 = FACE_OUTER_BOUND ( 'NONE', #224, .T. ) ;
#160 = PERSON_AND_ORGANIZATION ( #308, #186 ) ;
#161 = AXIS2_PLACEMENT_3D ( 'NONE', #51, #19, #340 ) ;
#162 = DIRECTION ( 'NONE',  ( 1.000000000000000000, 0.0000000000000000000, 0.0000000000000000000 ) ) ;
#163 = DIRECTION ( 'NONE',  ( 0.0000000000000000000, 0.0000000000000000000, 1.000000000000000000 ) ) ;
#164 = CARTESIAN_POINT ( 'NONE',  ( 49.44797695050569100, 140.9361798597323600, 1.250000000000000000 ) ) ;
#165 = LINE ( 'NONE', #245, #12 ) ;
#166 = CARTESIAN_POINT ( 'NONE',  ( -1.860717385485326800E-012, 163.5856943200696500, 2.500000000000000000 ) ) ;
#167 = DIRECTION ( 'NONE',  ( 0.0000000000000000000, 0.0000000000000000000, 1.000000000000000000 ) ) ;
#168 = AXIS2_PLACEMENT_3D ( 'NONE', #36, #223, #118 ) ;
#169 = ORIENTED_EDGE ( 'NONE', *, *, #58, .T. ) ;
#170 = CC_DESIGN_APPROVAL ( #315, ( #17 ) ) ;
#171 = CIRCLE ( 'NONE', #18, 21.00000000000028800 ) ;
#172 = CARTESIAN_POINT ( 'NONE',  ( -1.860717385485326800E-012, 163.5856943200696500, 1.250000000000000000 ) ) ;
#173 = PRODUCT_DEFINITION_SHAPE ( 'NONE', 'NONE',  #296 ) ;
#174 = APPROVAL_DATE_TIME ( #332, #315 ) ;
#175 = APPROVAL_PERSON_ORGANIZATION ( #259, #289, #292 ) ;
#176 = ORIENTED_EDGE ( 'NONE', *, *, #318, .T. ) ;
#177 = AXIS2_PLACEMENT_3D ( 'NONE', #50, #163, #137 ) ;
#178 = CARTESIAN_POINT ( 'NONE',  ( -28.65425559449660000, 158.9999999999984700, 2.500000000000000000 ) ) ;
#179 = CARTESIAN_POINT ( 'NONE',  ( 49.44797695050569100, 140.9361798597323600, 2.500000000000000000 ) ) ;
#180 = APPROVAL_PERSON_ORGANIZATION ( #125, #327, #59 ) ;
#181 = DIRECTION ( 'NONE',  ( 0.0000000000000000000, 0.0000000000000000000, 1.000000000000000000 ) ) ;
#182 = CIRCLE ( 'NONE', #348, 6.000000000000130600 ) ;
#183 = DIRECTION ( 'NONE',  ( 1.000000000000000000, 0.0000000000000000000, 0.0000000000000000000 ) ) ;
#184 = APPROVAL_DATE_TIME ( #29, #327 ) ;
#185 = VERTEX_POINT ( 'NONE', #203 ) ;
#186 = ORGANIZATION ( 'UNSPECIFIED', 'UNSPECIFIED', '' ) ;
#187 = CARTESIAN_POINT ( 'NONE',  ( 28.65425559449774800, 137.9999999999997700, 2.500000000000000000 ) ) ;
#188 = EDGE_CURVE ( 'NONE', #270, #233, #171, .T. ) ;
#189 = AXIS2_PLACEMENT_3D ( 'NONE', #172, #66, #276 ) ;
#190 = DIRECTION ( 'NONE',  ( 0.0000000000000000000, 0.0000000000000000000, 1.000000000000000000 ) ) ;
#191 = DATE_AND_TIME ( #263, #146 ) ;
#192 = EDGE_LOOP ( 'NONE', ( #325, #321, #131, #298 ) ) ;
#193 = ORIENTED_EDGE ( 'NONE', *, *, #318, .F. ) ;
#194 = PERSON_AND_ORGANIZATION_ROLE ( 'design_owner' ) ;
#195 = CARTESIAN_POINT ( 'NONE',  ( 28.65425559450146100, 158.9999999999998000, 1.250000000000000000 ) ) ;
#196 = ADVANCED_FACE ( 'NONE', ( #344 ), #290, .T. ) ;
#197 = PLANE ( 'NONE',  #168 ) ;
#198 = UNCERTAINTY_MEASURE_WITH_UNIT (LENGTH_MEASURE( 1.000000000000000100E-005 ), #214, 'distance_accuracy_value', 'NONE');
#199 = DIRECTION ( 'NONE',  ( 0.0000000000000000000, 0.0000000000000000000, 1.000000000000000000 ) ) ;
#200 = COORDINATED_UNIVERSAL_TIME_OFFSET ( 1, 0, .AHEAD. ) ;
#201 = VECTOR ( 'NONE', #261, 1000.000000000000000 ) ;
#202 = CLOSED_SHELL ( 'NONE', ( #196, #117, #294, #65, #222, #293, #145, #93, #62 ) ) ;
#203 = CARTESIAN_POINT ( 'NONE',  ( 28.65425559450146100, 158.9999999999998000, 2.500000000000000000 ) ) ;
#204 = LINE ( 'NONE', #336, #324 ) ;
#205 = VERTEX_POINT ( 'NONE', #124 ) ;
#206 = DIRECTION ( 'NONE',  ( 0.0000000000000000000, 0.0000000000000000000, 1.000000000000000000 ) ) ;
#207 = DIRECTION ( 'NONE',  ( 0.0000000000000000000, 0.0000000000000000000, 1.000000000000000000 ) ) ;
#208 = CYLINDRICAL_SURFACE ( 'NONE', #230, 21.00000000000001400 ) ;
#209 = ORIENTED_EDGE ( 'NONE', *, *, #331, .T. ) ;
#210 = DATE_AND_TIME ( #22, #115 ) ;
#211 = CYLINDRICAL_SURFACE ( 'NONE', #177, 21.00000000000028800 ) ;
#212 = DIRECTION ( 'NONE',  ( 0.0000000000000000000, 0.0000000000000000000, 1.000000000000000000 ) ) ;
#213 = VERTEX_POINT ( 'NONE', #10 ) ;
#214 =( LENGTH_UNIT ( ) NAMED_UNIT ( * ) SI_UNIT ( .MILLI., .METRE. ) );
#215 = CARTESIAN_POINT ( 'NONE',  ( 43.50691370593196400, 140.0972713283802000, 1.250000000000000000 ) ) ;
#216 = LINE ( 'NONE', #232, #130 ) ;
#217 = ORIENTED_EDGE ( 'NONE', *, *, #254, .T. ) ;
#218 = APPROVAL_STATUS ( 'not_yet_approved' ) ;
#219 = PERSON_AND_ORGANIZATION ( #308, #186 ) ;
#220 = VECTOR ( 'NONE', #84, 1000.000000000000000 ) ;
#221 = ORIENTED_EDGE ( 'NONE', *, *, #286, .F. ) ;
#222 = ADVANCED_FACE ( 'NONE', ( #139 ), #244, .T. ) ;
#223 = DIRECTION ( 'NONE',  ( 0.0000000000000000000, 0.0000000000000000000, 1.000000000000000000 ) ) ;
#224 = EDGE_LOOP ( 'NONE', ( #143, #338, #306, #35, #96, #148, #103 ) ) ;
#225 = AXIS2_PLACEMENT_3D ( 'NONE', #74, #98, #9 ) ;
#226 = ORIENTED_EDGE ( 'NONE', *, *, #80, .F. ) ;
#227 = CARTESIAN_POINT ( 'NONE',  ( -48.78661549762024000, 137.2468767958839900, 2.500000000000000000 ) ) ;
#228 =( GEOMETRIC_REPRESENTATION_CONTEXT ( 3 ) GLOBAL_UNCERTAINTY_ASSIGNED_CONTEXT ( ( #198 ) ) GLOBAL_UNIT_ASSIGNED_CONTEXT ( ( #214, #107, #285 ) ) REPRESENTATION_CONTEXT ( 'NONE', 'WORKASPACE' ) );
#229 = CARTESIAN_POINT ( 'NONE',  ( -49.44797695050856800, 140.9361798597306000, 2.500000000000000000 ) ) ;
#230 = AXIS2_PLACEMENT_3D ( 'NONE', #41, #207, #155 ) ;
#231 = DIRECTION ( 'NONE',  ( 1.000000000000000000, 0.0000000000000000000, 0.0000000000000000000 ) ) ;
#232 = CARTESIAN_POINT ( 'NONE',  ( 49.50691370593199300, 140.0972713283802000, 1.250000000000000000 ) ) ;
#233 = VERTEX_POINT ( 'NONE', #229 ) ;
#234 = EDGE_CURVE ( 'NONE', #233, #120, #182, .T. ) ;
#235 = CARTESIAN_POINT ( 'NONE',  ( -48.78661549762024000, 137.2468767958839900, 1.250000000000000000 ) ) ;
#236 = APPLICATION_PROTOCOL_DEFINITION ( 'international standard', 'config_control_design', 1994, #54 ) ;
#237 = CIRCLE ( 'NONE', #91, 6.000000000000025800 ) ;
#238 = AXIS2_PLACEMENT_3D ( 'NONE', #278, #206, #231 ) ;
#239 = APPROVAL_STATUS ( 'not_yet_approved' ) ;
#240 = ORIENTED_EDGE ( 'NONE', *, *, #20, .F. ) ;
#241 = MECHANICAL_CONTEXT ( 'NONE', #54, 'mechanical' ) ;
#242 = AXIS2_PLACEMENT_3D ( 'NONE', #314, #212, #162 ) ;
#243 = PERSON_AND_ORGANIZATION_ROLE ( 'design_supplier' ) ;
#244 = CYLINDRICAL_SURFACE ( 'NONE', #225, 6.000000000000130600 ) ;
#245 = CARTESIAN_POINT ( 'NONE',  ( 28.65425559450146100, 158.9999999999998000, 1.250000000000000000 ) ) ;
#246 = VERTEX_POINT ( 'NONE', #179 ) ;
#247 = DIRECTION ( 'NONE',  ( 0.0000000000000000000, 0.0000000000000000000, 1.000000000000000000 ) ) ;
#248 = AXIS2_PLACEMENT_3D ( 'NONE', #295, #199, #37 ) ;
#249 = CARTESIAN_POINT ( 'NONE',  ( 28.65425559450146100, 158.9999999999998000, 1.250000000000000000 ) ) ;
#250 = CARTESIAN_POINT ( 'NONE',  ( -28.65425559450030900, 137.9999999999981800, 2.500000000000000000 ) ) ;
#251 = SHAPE_DEFINITION_REPRESENTATION ( #173, #256 ) ;
#252 = AXIS2_PLACEMENT_3D ( 'NONE', #26, #25, #16 ) ;
#253 = DIRECTION ( 'NONE',  ( 0.0000000000000000000, 0.0000000000000000000, 1.000000000000000000 ) ) ;
#254 = EDGE_CURVE ( 'NONE', #56, #205, #23, .T. ) ;
#255 = AXIS2_PLACEMENT_3D ( 'NONE', #297, #253, #183 ) ;
#256 = ADVANCED_BREP_SHAPE_REPRESENTATION ( 'Plaque chevalet', ( #313, #322 ), #228 ) ;
#257 = EDGE_LOOP ( 'NONE', ( #305, #266, #40, #79 ) ) ;
#258 = CC_DESIGN_PERSON_AND_ORGANIZATION_ASSIGNMENT ( #104, #60, ( #296 ) ) ;
#259 = PERSON_AND_ORGANIZATION ( #308, #186 ) ;
#260 = ORIENTED_EDGE ( 'NONE', *, *, #94, .T. ) ;
#261 = DIRECTION ( 'NONE',  ( 0.0000000000000000000, 0.0000000000000000000, 1.000000000000000000 ) ) ;
#262 = CC_DESIGN_DATE_AND_TIME_ASSIGNMENT ( #210, #142, ( #296 ) ) ;
#263 = CALENDAR_DATE ( 2018, 27, 12 ) ;
#264 = VECTOR ( 'NONE', #309, 1000.000000000000000 ) ;
#265 = EDGE_LOOP ( 'NONE', ( #2, #221, #15, #176 ) ) ;
#266 = ORIENTED_EDGE ( 'NONE', *, *, #6, .T. ) ;
#267 = APPROVAL_STATUS ( 'not_yet_approved' ) ;
#268 = DATE_TIME_ROLE ( 'classification_date' ) ;
#269 = LINE ( 'NONE', #46, #71 ) ;
#270 = VERTEX_POINT ( 'NONE', #178 ) ;
#271 = SECURITY_CLASSIFICATION_LEVEL ( 'unclassified' ) ;
#272 = CC_DESIGN_PERSON_AND_ORGANIZATION_ASSIGNMENT ( #99, #28, ( #17 ) ) ;
#273 = DIRECTION ( 'NONE',  ( 0.0000000000000000000, 0.0000000000000000000, 1.000000000000000000 ) ) ;
#274 = EDGE_CURVE ( 'NONE', #246, #185, #275, .T. ) ;
#275 = CIRCLE ( 'NONE', #280, 21.00000000000001400 ) ;
#276 = DIRECTION ( 'NONE',  ( 1.000000000000000000, 0.0000000000000000000, 0.0000000000000000000 ) ) ;
#277 = FACE_OUTER_BOUND ( 'NONE', #192, .T. ) ;
#278 = CARTESIAN_POINT ( 'NONE',  ( 43.50691370593196400, 140.0972713283802000, 2.500000000000000000 ) ) ;
#279 = CARTESIAN_POINT ( 'NONE',  ( -49.44797695050856800, 140.9361798597306000, 1.250000000000000000 ) ) ;
#280 = AXIS2_PLACEMENT_3D ( 'NONE', #187, #190, #134 ) ;
#281 = CIRCLE ( 'NONE', #238, 6.000000000000025800 ) ;
#282 = EDGE_LOOP ( 'NONE', ( #226, #240, #217, #209 ) ) ;
#283 = EDGE_CURVE ( 'NONE', #114, #121, #237, .T. ) ;
#284 = LINE ( 'NONE', #235, #220 ) ;
#285 =( NAMED_UNIT ( * ) SI_UNIT ( $, .STERADIAN. ) SOLID_ANGLE_UNIT ( ) );
#286 = EDGE_CURVE ( 'NONE', #105, #233, #320, .T. ) ;
#287 = VERTEX_POINT ( 'NONE', #164 ) ;
#288 = DIRECTION ( 'NONE',  ( 1.000000000000000000, 0.0000000000000000000, 0.0000000000000000000 ) ) ;
#289 = APPROVAL ( #218, 'UNSPECIFIED' ) ;
#290 = CYLINDRICAL_SURFACE ( 'NONE', #52, 6.000000000000025800 ) ;
#291 = VERTEX_POINT ( 'NONE', #55 ) ;
#292 = APPROVAL_ROLE ( '' ) ;
#293 = ADVANCED_FACE ( 'NONE', ( #119 ), #211, .T. ) ;
#294 = ADVANCED_FACE ( 'NONE', ( #45 ), #110, .T. ) ;
#295 = CARTESIAN_POINT ( 'NONE',  ( 43.50691370593196400, 140.0972713283802000, 1.250000000000000000 ) ) ;
#296 = PRODUCT_DEFINITION ( 'UNKNOWN', '', #303, #43 ) ;
#297 = CARTESIAN_POINT ( 'NONE',  ( 43.50691370593196400, 140.0972713283802000, 2.500000000000000000 ) ) ;
#298 = ORIENTED_EDGE ( 'NONE', *, *, #20, .T. ) ;
#299 = EDGE_CURVE ( 'NONE', #287, #246, #204, .T. ) ;
#300 = DIRECTION ( 'NONE',  ( 0.0000000000000000000, 0.0000000000000000000, 1.000000000000000000 ) ) ;
#301 = DIRECTION ( 'NONE',  ( 1.000000000000000000, 0.0000000000000000000, 0.0000000000000000000 ) ) ;
#302 = LINE ( 'NONE', #83, #34 ) ;
#303 = PRODUCT_DEFINITION_FORMATION_WITH_SPECIFIED_SOURCE ( 'ANY', '', #106, .NOT_KNOWN. ) ;
#304 = DIRECTION ( 'NONE',  ( 0.0000000000000000000, 0.0000000000000000000, 1.000000000000000000 ) ) ;
#305 = ORIENTED_EDGE ( 'NONE', *, *, #97, .F. ) ;
#306 = ORIENTED_EDGE ( 'NONE', *, *, #283, .F. ) ;
#307 = CC_DESIGN_APPROVAL ( #289, ( #296 ) ) ;
#308 = PERSON ( 'UNSPECIFIED', 'UNSPECIFIED', 'UNSPECIFIED', ('UNSPECIFIED'), ('UNSPECIFIED'), ('UNSPECIFIED') ) ;
#309 = DIRECTION ( 'NONE',  ( -1.000000000000000000, -2.324729088069475400E-014, 0.0000000000000000000 ) ) ;
#310 = CIRCLE ( 'NONE', #49, 21.00000000000028800 ) ;
#311 = DIRECTION ( 'NONE',  ( 0.0000000000000000000, 0.0000000000000000000, 1.000000000000000000 ) ) ;
#312 = DIRECTION ( 'NONE',  ( 1.000000000000000000, 0.0000000000000000000, 0.0000000000000000000 ) ) ;
#313 = MANIFOLD_SOLID_BREP ( 'Boss.-Extru.1', #202 ) ;
#314 = CARTESIAN_POINT ( 'NONE',  ( 43.50691370593196400, 140.0972713283802000, 1.250000000000000000 ) ) ;
#315 = APPROVAL ( #267, 'UNSPECIFIED' ) ;
#316 = PRODUCT_RELATED_PRODUCT_CATEGORY ( 'detail', '', ( #106 ) ) ;
#317 = EDGE_CURVE ( 'NONE', #287, #56, #5, .T. ) ;
#318 = EDGE_CURVE ( 'NONE', #213, #120, #284, .T. ) ;
#319 = APPROVAL_DATE_TIME ( #61, #289 ) ;
#320 = LINE ( 'NONE', #108, #201 ) ;
#321 = ORIENTED_EDGE ( 'NONE', *, *, #299, .F. ) ;
#322 = AXIS2_PLACEMENT_3D ( 'NONE', #81, #339, #88 ) ;
#323 = CARTESIAN_POINT ( 'NONE',  ( 48.78661549761751800, 137.2468767958859200, 2.500000000000000000 ) ) ;
#324 = VECTOR ( 'NONE', #132, 1000.000000000000000 ) ;
#325 = ORIENTED_EDGE ( 'NONE', *, *, #274, .F. ) ;
#326 = DIRECTION ( 'NONE',  ( 1.000000000000000000, 0.0000000000000000000, 0.0000000000000000000 ) ) ;
#327 = APPROVAL ( #239, 'UNSPECIFIED' ) ;
#328 = CIRCLE ( 'NONE', #252, 55.44246711939145200 ) ;
#329 = CARTESIAN_POINT ( 'NONE',  ( 43.50691370593196400, 140.0972713283802000, 1.250000000000000000 ) ) ;
#330 = DIRECTION ( 'NONE',  ( 1.000000000000000000, 0.0000000000000000000, -0.0000000000000000000 ) ) ;
#331 = EDGE_CURVE ( 'NONE', #205, #270, #302, .T. ) ;
#332 = DATE_AND_TIME ( #14, #341 ) ;
#333 = CIRCLE ( 'NONE', #11, 6.000000000000130600 ) ;
#334 = CC_DESIGN_PERSON_AND_ORGANIZATION_ASSIGNMENT ( #219, #141, ( #303 ) ) ;
#335 = EDGE_CURVE ( 'NONE', #213, #114, #328, .T. ) ;
#336 = CARTESIAN_POINT ( 'NONE',  ( 49.44797695050569100, 140.9361798597323600, 1.250000000000000000 ) ) ;
#337 = EDGE_CURVE ( 'NONE', #205, #105, #310, .T. ) ;
#338 = ORIENTED_EDGE ( 'NONE', *, *, #6, .F. ) ;
#339 = DIRECTION ( 'NONE',  ( 0.0000000000000000000, 0.0000000000000000000, 1.000000000000000000 ) ) ;
#340 = DIRECTION ( 'NONE',  ( 1.000000000000000000, 0.0000000000000000000, 0.0000000000000000000 ) ) ;
#341 = LOCAL_TIME ( 12, 18, 54.00000000000000000, #200 ) ;
#342 = FACE_OUTER_BOUND ( 'NONE', #282, .T. ) ;
#343 = ORIENTED_EDGE ( 'NONE', *, *, #188, .F. ) ;
#344 = FACE_OUTER_BOUND ( 'NONE', #140, .T. ) ;
#345 = EDGE_CURVE ( 'NONE', #120, #87, #153, .T. ) ;
#346 = ORIENTED_EDGE ( 'NONE', *, *, #234, .T. ) ;
#347 = CC_DESIGN_APPROVAL ( #327, ( #303 ) ) ;
#348 = AXIS2_PLACEMENT_3D ( 'NONE', #152, #122, #101 ) ;
ENDSEC;
END-ISO-10303-21;
