ISO-10303-21;
HEADER;
/* Generated by software containing ST-Developer
 * from STEP Tools, Inc. (www.steptools.com) 
 */

FILE_DESCRIPTION(
/* description */ (''),
/* implementation_level */ '2;1');

FILE_NAME(
/* name */ '/Users/jmr/Downloads/butee porte longue v4 v1.step',
/* time_stamp */ '2018-08-20T08:11:22+02:00',
/* author */ ('vreb87'),
/* organization */ (''),
/* preprocessor_version */ 'ST-DEVELOPER v17',
/* originating_system */ 'Autodesk Translation Framework v7.1.0.215',
/* authorisation */ '');

FILE_SCHEMA (('AUTOMOTIVE_DESIGN { 1 0 10303 214 3 1 1 }'));
ENDSEC;

DATA;
#10=MECHANICAL_DESIGN_GEOMETRIC_PRESENTATION_REPRESENTATION('',(#13),#459);
#11=SHAPE_REPRESENTATION_RELATIONSHIP('SRR','None',#466,#12);
#12=ADVANCED_BREP_SHAPE_REPRESENTATION('',(#14),#458);
#13=STYLED_ITEM('',(#475),#14);
#14=MANIFOLD_SOLID_BREP('Body2',#279);
#15=FACE_BOUND('',#52,.T.);
#16=FACE_BOUND('',#53,.T.);
#17=FACE_BOUND('',#55,.T.);
#18=FACE_BOUND('',#56,.T.);
#19=CIRCLE('',#300,2.);
#20=CIRCLE('',#301,2.);
#21=CIRCLE('',#303,2.);
#22=CIRCLE('',#304,2.);
#23=CYLINDRICAL_SURFACE('',#299,2.);
#24=CYLINDRICAL_SURFACE('',#302,2.);
#25=FACE_OUTER_BOUND('',#39,.T.);
#26=FACE_OUTER_BOUND('',#40,.T.);
#27=FACE_OUTER_BOUND('',#41,.T.);
#28=FACE_OUTER_BOUND('',#42,.T.);
#29=FACE_OUTER_BOUND('',#43,.T.);
#30=FACE_OUTER_BOUND('',#44,.T.);
#31=FACE_OUTER_BOUND('',#45,.T.);
#32=FACE_OUTER_BOUND('',#46,.T.);
#33=FACE_OUTER_BOUND('',#47,.T.);
#34=FACE_OUTER_BOUND('',#48,.T.);
#35=FACE_OUTER_BOUND('',#49,.T.);
#36=FACE_OUTER_BOUND('',#50,.T.);
#37=FACE_OUTER_BOUND('',#51,.T.);
#38=FACE_OUTER_BOUND('',#54,.T.);
#39=EDGE_LOOP('',(#181,#182,#183,#184));
#40=EDGE_LOOP('',(#185,#186,#187,#188));
#41=EDGE_LOOP('',(#189,#190,#191,#192));
#42=EDGE_LOOP('',(#193,#194,#195,#196,#197,#198));
#43=EDGE_LOOP('',(#199,#200,#201,#202));
#44=EDGE_LOOP('',(#203,#204,#205,#206));
#45=EDGE_LOOP('',(#207,#208,#209,#210));
#46=EDGE_LOOP('',(#211,#212,#213,#214));
#47=EDGE_LOOP('',(#215,#216,#217,#218));
#48=EDGE_LOOP('',(#219,#220,#221,#222));
#49=EDGE_LOOP('',(#223,#224,#225,#226));
#50=EDGE_LOOP('',(#227,#228,#229,#230,#231,#232,#233,#234,#235,#236));
#51=EDGE_LOOP('',(#237,#238,#239,#240,#241,#242,#243,#244));
#52=EDGE_LOOP('',(#245));
#53=EDGE_LOOP('',(#246));
#54=EDGE_LOOP('',(#247,#248,#249,#250));
#55=EDGE_LOOP('',(#251));
#56=EDGE_LOOP('',(#252));
#57=LINE('',#385,#89);
#58=LINE('',#387,#90);
#59=LINE('',#389,#91);
#60=LINE('',#390,#92);
#61=LINE('',#394,#93);
#62=LINE('',#396,#94);
#63=LINE('',#398,#95);
#64=LINE('',#399,#96);
#65=LINE('',#402,#97);
#66=LINE('',#404,#98);
#67=LINE('',#405,#99);
#68=LINE('',#407,#100);
#69=LINE('',#409,#101);
#70=LINE('',#410,#102);
#71=LINE('',#413,#103);
#72=LINE('',#414,#104);
#73=LINE('',#416,#105);
#74=LINE('',#421,#106);
#75=LINE('',#427,#107);
#76=LINE('',#432,#108);
#77=LINE('',#434,#109);
#78=LINE('',#436,#110);
#79=LINE('',#437,#111);
#80=LINE('',#440,#112);
#81=LINE('',#442,#113);
#82=LINE('',#443,#114);
#83=LINE('',#446,#115);
#84=LINE('',#448,#116);
#85=LINE('',#449,#117);
#86=LINE('',#451,#118);
#87=LINE('',#452,#119);
#88=LINE('',#453,#120);
#89=VECTOR('',#315,10.);
#90=VECTOR('',#316,10.);
#91=VECTOR('',#317,10.);
#92=VECTOR('',#318,10.);
#93=VECTOR('',#321,10.);
#94=VECTOR('',#322,10.);
#95=VECTOR('',#323,10.);
#96=VECTOR('',#324,10.);
#97=VECTOR('',#327,10.);
#98=VECTOR('',#328,10.);
#99=VECTOR('',#329,10.);
#100=VECTOR('',#332,10.);
#101=VECTOR('',#333,10.);
#102=VECTOR('',#334,10.);
#103=VECTOR('',#337,10.);
#104=VECTOR('',#338,10.);
#105=VECTOR('',#341,10.);
#106=VECTOR('',#346,2.);
#107=VECTOR('',#353,2.);
#108=VECTOR('',#358,10.);
#109=VECTOR('',#359,10.);
#110=VECTOR('',#360,10.);
#111=VECTOR('',#361,10.);
#112=VECTOR('',#364,10.);
#113=VECTOR('',#365,10.);
#114=VECTOR('',#366,10.);
#115=VECTOR('',#369,10.);
#116=VECTOR('',#370,10.);
#117=VECTOR('',#371,10.);
#118=VECTOR('',#374,10.);
#119=VECTOR('',#375,10.);
#120=VECTOR('',#376,10.);
#121=VERTEX_POINT('',#383);
#122=VERTEX_POINT('',#384);
#123=VERTEX_POINT('',#386);
#124=VERTEX_POINT('',#388);
#125=VERTEX_POINT('',#392);
#126=VERTEX_POINT('',#393);
#127=VERTEX_POINT('',#395);
#128=VERTEX_POINT('',#397);
#129=VERTEX_POINT('',#401);
#130=VERTEX_POINT('',#403);
#131=VERTEX_POINT('',#408);
#132=VERTEX_POINT('',#412);
#133=VERTEX_POINT('',#418);
#134=VERTEX_POINT('',#420);
#135=VERTEX_POINT('',#424);
#136=VERTEX_POINT('',#426);
#137=VERTEX_POINT('',#430);
#138=VERTEX_POINT('',#431);
#139=VERTEX_POINT('',#433);
#140=VERTEX_POINT('',#435);
#141=VERTEX_POINT('',#439);
#142=VERTEX_POINT('',#441);
#143=VERTEX_POINT('',#445);
#144=VERTEX_POINT('',#447);
#145=EDGE_CURVE('',#121,#122,#57,.T.);
#146=EDGE_CURVE('',#123,#121,#58,.T.);
#147=EDGE_CURVE('',#123,#124,#59,.T.);
#148=EDGE_CURVE('',#122,#124,#60,.T.);
#149=EDGE_CURVE('',#125,#126,#61,.T.);
#150=EDGE_CURVE('',#127,#125,#62,.T.);
#151=EDGE_CURVE('',#128,#127,#63,.T.);
#152=EDGE_CURVE('',#126,#128,#64,.T.);
#153=EDGE_CURVE('',#128,#129,#65,.T.);
#154=EDGE_CURVE('',#130,#129,#66,.T.);
#155=EDGE_CURVE('',#126,#130,#67,.T.);
#156=EDGE_CURVE('',#125,#122,#68,.T.);
#157=EDGE_CURVE('',#131,#130,#69,.T.);
#158=EDGE_CURVE('',#121,#131,#70,.T.);
#159=EDGE_CURVE('',#132,#131,#71,.T.);
#160=EDGE_CURVE('',#123,#132,#72,.T.);
#161=EDGE_CURVE('',#129,#132,#73,.T.);
#162=EDGE_CURVE('',#133,#133,#19,.T.);
#163=EDGE_CURVE('',#133,#134,#74,.T.);
#164=EDGE_CURVE('',#134,#134,#20,.T.);
#165=EDGE_CURVE('',#135,#135,#21,.T.);
#166=EDGE_CURVE('',#135,#136,#75,.T.);
#167=EDGE_CURVE('',#136,#136,#22,.T.);
#168=EDGE_CURVE('',#137,#138,#76,.T.);
#169=EDGE_CURVE('',#137,#139,#77,.T.);
#170=EDGE_CURVE('',#140,#139,#78,.T.);
#171=EDGE_CURVE('',#138,#140,#79,.T.);
#172=EDGE_CURVE('',#138,#141,#80,.T.);
#173=EDGE_CURVE('',#142,#140,#81,.T.);
#174=EDGE_CURVE('',#141,#142,#82,.T.);
#175=EDGE_CURVE('',#141,#143,#83,.T.);
#176=EDGE_CURVE('',#144,#142,#84,.T.);
#177=EDGE_CURVE('',#143,#144,#85,.T.);
#178=EDGE_CURVE('',#143,#137,#86,.T.);
#179=EDGE_CURVE('',#124,#144,#87,.T.);
#180=EDGE_CURVE('',#139,#127,#88,.T.);
#181=ORIENTED_EDGE('',*,*,#145,.F.);
#182=ORIENTED_EDGE('',*,*,#146,.F.);
#183=ORIENTED_EDGE('',*,*,#147,.T.);
#184=ORIENTED_EDGE('',*,*,#148,.F.);
#185=ORIENTED_EDGE('',*,*,#149,.F.);
#186=ORIENTED_EDGE('',*,*,#150,.F.);
#187=ORIENTED_EDGE('',*,*,#151,.F.);
#188=ORIENTED_EDGE('',*,*,#152,.F.);
#189=ORIENTED_EDGE('',*,*,#152,.T.);
#190=ORIENTED_EDGE('',*,*,#153,.T.);
#191=ORIENTED_EDGE('',*,*,#154,.F.);
#192=ORIENTED_EDGE('',*,*,#155,.F.);
#193=ORIENTED_EDGE('',*,*,#156,.F.);
#194=ORIENTED_EDGE('',*,*,#149,.T.);
#195=ORIENTED_EDGE('',*,*,#155,.T.);
#196=ORIENTED_EDGE('',*,*,#157,.F.);
#197=ORIENTED_EDGE('',*,*,#158,.F.);
#198=ORIENTED_EDGE('',*,*,#145,.T.);
#199=ORIENTED_EDGE('',*,*,#146,.T.);
#200=ORIENTED_EDGE('',*,*,#158,.T.);
#201=ORIENTED_EDGE('',*,*,#159,.F.);
#202=ORIENTED_EDGE('',*,*,#160,.F.);
#203=ORIENTED_EDGE('',*,*,#161,.T.);
#204=ORIENTED_EDGE('',*,*,#159,.T.);
#205=ORIENTED_EDGE('',*,*,#157,.T.);
#206=ORIENTED_EDGE('',*,*,#154,.T.);
#207=ORIENTED_EDGE('',*,*,#162,.F.);
#208=ORIENTED_EDGE('',*,*,#163,.T.);
#209=ORIENTED_EDGE('',*,*,#164,.T.);
#210=ORIENTED_EDGE('',*,*,#163,.F.);
#211=ORIENTED_EDGE('',*,*,#165,.F.);
#212=ORIENTED_EDGE('',*,*,#166,.T.);
#213=ORIENTED_EDGE('',*,*,#167,.T.);
#214=ORIENTED_EDGE('',*,*,#166,.F.);
#215=ORIENTED_EDGE('',*,*,#168,.F.);
#216=ORIENTED_EDGE('',*,*,#169,.T.);
#217=ORIENTED_EDGE('',*,*,#170,.F.);
#218=ORIENTED_EDGE('',*,*,#171,.F.);
#219=ORIENTED_EDGE('',*,*,#172,.F.);
#220=ORIENTED_EDGE('',*,*,#171,.T.);
#221=ORIENTED_EDGE('',*,*,#173,.F.);
#222=ORIENTED_EDGE('',*,*,#174,.F.);
#223=ORIENTED_EDGE('',*,*,#175,.F.);
#224=ORIENTED_EDGE('',*,*,#174,.T.);
#225=ORIENTED_EDGE('',*,*,#176,.F.);
#226=ORIENTED_EDGE('',*,*,#177,.F.);
#227=ORIENTED_EDGE('',*,*,#178,.F.);
#228=ORIENTED_EDGE('',*,*,#177,.T.);
#229=ORIENTED_EDGE('',*,*,#179,.F.);
#230=ORIENTED_EDGE('',*,*,#147,.F.);
#231=ORIENTED_EDGE('',*,*,#160,.T.);
#232=ORIENTED_EDGE('',*,*,#161,.F.);
#233=ORIENTED_EDGE('',*,*,#153,.F.);
#234=ORIENTED_EDGE('',*,*,#151,.T.);
#235=ORIENTED_EDGE('',*,*,#180,.F.);
#236=ORIENTED_EDGE('',*,*,#169,.F.);
#237=ORIENTED_EDGE('',*,*,#148,.T.);
#238=ORIENTED_EDGE('',*,*,#179,.T.);
#239=ORIENTED_EDGE('',*,*,#176,.T.);
#240=ORIENTED_EDGE('',*,*,#173,.T.);
#241=ORIENTED_EDGE('',*,*,#170,.T.);
#242=ORIENTED_EDGE('',*,*,#180,.T.);
#243=ORIENTED_EDGE('',*,*,#150,.T.);
#244=ORIENTED_EDGE('',*,*,#156,.T.);
#245=ORIENTED_EDGE('',*,*,#165,.T.);
#246=ORIENTED_EDGE('',*,*,#162,.T.);
#247=ORIENTED_EDGE('',*,*,#178,.T.);
#248=ORIENTED_EDGE('',*,*,#168,.T.);
#249=ORIENTED_EDGE('',*,*,#172,.T.);
#250=ORIENTED_EDGE('',*,*,#175,.T.);
#251=ORIENTED_EDGE('',*,*,#167,.F.);
#252=ORIENTED_EDGE('',*,*,#164,.F.);
#253=PLANE('',#293);
#254=PLANE('',#294);
#255=PLANE('',#295);
#256=PLANE('',#296);
#257=PLANE('',#297);
#258=PLANE('',#298);
#259=PLANE('',#305);
#260=PLANE('',#306);
#261=PLANE('',#307);
#262=PLANE('',#308);
#263=PLANE('',#309);
#264=PLANE('',#310);
#265=ADVANCED_FACE('',(#25),#253,.T.);
#266=ADVANCED_FACE('',(#26),#254,.T.);
#267=ADVANCED_FACE('',(#27),#255,.T.);
#268=ADVANCED_FACE('',(#28),#256,.T.);
#269=ADVANCED_FACE('',(#29),#257,.T.);
#270=ADVANCED_FACE('',(#30),#258,.T.);
#271=ADVANCED_FACE('',(#31),#23,.F.);
#272=ADVANCED_FACE('',(#32),#24,.F.);
#273=ADVANCED_FACE('',(#33),#259,.T.);
#274=ADVANCED_FACE('',(#34),#260,.T.);
#275=ADVANCED_FACE('',(#35),#261,.T.);
#276=ADVANCED_FACE('',(#36),#262,.T.);
#277=ADVANCED_FACE('',(#37,#15,#16),#263,.T.);
#278=ADVANCED_FACE('',(#38,#17,#18),#264,.F.);
#279=CLOSED_SHELL('',(#265,#266,#267,#268,#269,#270,#271,#272,#273,#274,
#275,#276,#277,#278));
#280=DERIVED_UNIT_ELEMENT(#282,1.);
#281=DERIVED_UNIT_ELEMENT(#463,3.);
#282=(
MASS_UNIT()
NAMED_UNIT(*)
SI_UNIT(.KILO.,.GRAM.)
);
#283=DERIVED_UNIT((#280,#281));
#284=MEASURE_REPRESENTATION_ITEM('density measure',
POSITIVE_RATIO_MEASURE(7850.),#283);
#285=PROPERTY_DEFINITION_REPRESENTATION(#290,#287);
#286=PROPERTY_DEFINITION_REPRESENTATION(#291,#288);
#287=REPRESENTATION('material name',(#289),#458);
#288=REPRESENTATION('density',(#284),#458);
#289=DESCRIPTIVE_REPRESENTATION_ITEM('Steel','Steel');
#290=PROPERTY_DEFINITION('material property','material name',#468);
#291=PROPERTY_DEFINITION('material property','density of part',#468);
#292=AXIS2_PLACEMENT_3D('placement',#381,#311,#312);
#293=AXIS2_PLACEMENT_3D('',#382,#313,#314);
#294=AXIS2_PLACEMENT_3D('',#391,#319,#320);
#295=AXIS2_PLACEMENT_3D('',#400,#325,#326);
#296=AXIS2_PLACEMENT_3D('',#406,#330,#331);
#297=AXIS2_PLACEMENT_3D('',#411,#335,#336);
#298=AXIS2_PLACEMENT_3D('',#415,#339,#340);
#299=AXIS2_PLACEMENT_3D('',#417,#342,#343);
#300=AXIS2_PLACEMENT_3D('',#419,#344,#345);
#301=AXIS2_PLACEMENT_3D('',#422,#347,#348);
#302=AXIS2_PLACEMENT_3D('',#423,#349,#350);
#303=AXIS2_PLACEMENT_3D('',#425,#351,#352);
#304=AXIS2_PLACEMENT_3D('',#428,#354,#355);
#305=AXIS2_PLACEMENT_3D('',#429,#356,#357);
#306=AXIS2_PLACEMENT_3D('',#438,#362,#363);
#307=AXIS2_PLACEMENT_3D('',#444,#367,#368);
#308=AXIS2_PLACEMENT_3D('',#450,#372,#373);
#309=AXIS2_PLACEMENT_3D('',#454,#377,#378);
#310=AXIS2_PLACEMENT_3D('',#455,#379,#380);
#311=DIRECTION('axis',(0.,0.,1.));
#312=DIRECTION('refdir',(1.,0.,0.));
#313=DIRECTION('center_axis',(0.253712693228665,0.9672796231156,0.));
#314=DIRECTION('ref_axis',(0.9672796231156,-0.253712693228665,0.));
#315=DIRECTION('',(0.9672796231156,-0.253712693228665,0.));
#316=DIRECTION('',(0.,0.,-1.));
#317=DIRECTION('',(0.9672796231156,-0.253712693228665,0.));
#318=DIRECTION('',(0.,0.,1.));
#319=DIRECTION('center_axis',(-0.25371269311269,0.96727962314602,0.));
#320=DIRECTION('ref_axis',(0.96727962314602,0.25371269311269,0.));
#321=DIRECTION('',(0.96727962314602,0.25371269311269,0.));
#322=DIRECTION('',(0.,0.,-1.));
#323=DIRECTION('',(-0.96727962314602,-0.25371269311269,0.));
#324=DIRECTION('',(0.,0.,1.));
#325=DIRECTION('center_axis',(-1.,0.,0.));
#326=DIRECTION('ref_axis',(0.,0.,1.));
#327=DIRECTION('',(0.,1.,0.));
#328=DIRECTION('',(0.,0.,1.));
#329=DIRECTION('',(0.,1.,0.));
#330=DIRECTION('center_axis',(0.,0.,-1.));
#331=DIRECTION('ref_axis',(-1.,0.,0.));
#332=DIRECTION('',(1.,0.,0.));
#333=DIRECTION('',(-1.,0.,0.));
#334=DIRECTION('',(0.,1.,0.));
#335=DIRECTION('center_axis',(1.,0.,0.));
#336=DIRECTION('ref_axis',(0.,0.,-1.));
#337=DIRECTION('',(0.,0.,-1.));
#338=DIRECTION('',(0.,1.,0.));
#339=DIRECTION('center_axis',(0.,1.,0.));
#340=DIRECTION('ref_axis',(0.,0.,1.));
#341=DIRECTION('',(1.,0.,0.));
#342=DIRECTION('center_axis',(0.,1.,0.));
#343=DIRECTION('ref_axis',(1.,0.,0.));
#344=DIRECTION('center_axis',(0.,-1.,0.));
#345=DIRECTION('ref_axis',(1.,0.,0.));
#346=DIRECTION('',(0.,-1.,0.));
#347=DIRECTION('center_axis',(0.,-1.,0.));
#348=DIRECTION('ref_axis',(1.,0.,0.));
#349=DIRECTION('center_axis',(0.,1.,0.));
#350=DIRECTION('ref_axis',(1.,0.,0.));
#351=DIRECTION('center_axis',(0.,-1.,0.));
#352=DIRECTION('ref_axis',(1.,0.,0.));
#353=DIRECTION('',(0.,-1.,0.));
#354=DIRECTION('center_axis',(0.,-1.,0.));
#355=DIRECTION('ref_axis',(1.,0.,0.));
#356=DIRECTION('center_axis',(-1.,0.,0.));
#357=DIRECTION('ref_axis',(0.,0.,1.));
#358=DIRECTION('',(0.,0.,-1.));
#359=DIRECTION('',(0.,1.,0.));
#360=DIRECTION('',(0.,0.,1.));
#361=DIRECTION('',(0.,1.,0.));
#362=DIRECTION('center_axis',(0.,0.,-1.));
#363=DIRECTION('ref_axis',(-1.,0.,0.));
#364=DIRECTION('',(1.,0.,0.));
#365=DIRECTION('',(-1.,0.,0.));
#366=DIRECTION('',(0.,1.,0.));
#367=DIRECTION('center_axis',(1.,0.,0.));
#368=DIRECTION('ref_axis',(0.,0.,-1.));
#369=DIRECTION('',(0.,0.,1.));
#370=DIRECTION('',(0.,0.,-1.));
#371=DIRECTION('',(0.,1.,0.));
#372=DIRECTION('center_axis',(0.,0.,1.));
#373=DIRECTION('ref_axis',(1.,0.,0.));
#374=DIRECTION('',(-1.,0.,0.));
#375=DIRECTION('',(1.,0.,0.));
#376=DIRECTION('',(1.,0.,0.));
#377=DIRECTION('center_axis',(0.,1.,0.));
#378=DIRECTION('ref_axis',(1.,0.,0.));
#379=DIRECTION('center_axis',(0.,1.,0.));
#380=DIRECTION('ref_axis',(1.,0.,0.));
#381=CARTESIAN_POINT('',(0.,0.,0.));
#382=CARTESIAN_POINT('Origin',(9.,11.0000001639128,63.5));
#383=CARTESIAN_POINT('',(9.,11.0000001639128,55.4999992549419));
#384=CARTESIAN_POINT('',(39.5,3.,55.4999992549419));
#385=CARTESIAN_POINT('',(7.61956250803892,11.362082136436,55.4999992549419));
#386=CARTESIAN_POINT('',(9.,11.0000001639128,63.5));
#387=CARTESIAN_POINT('',(9.,11.0000001639128,63.499999627471));
#388=CARTESIAN_POINT('',(39.5,3.,63.5));
#389=CARTESIAN_POINT('',(9.,11.0000001639128,63.5));
#390=CARTESIAN_POINT('',(39.5,3.,60.125));
#391=CARTESIAN_POINT('Origin',(-29.5,3.,63.5));
#392=CARTESIAN_POINT('',(-29.5,3.,55.4999992549419));
#393=CARTESIAN_POINT('',(1.00000001490116,11.0000001639128,55.4999992549419));
#394=CARTESIAN_POINT('',(-12.8695625072327,7.36208205255998,55.4999992549419));
#395=CARTESIAN_POINT('',(-29.5,3.,63.5));
#396=CARTESIAN_POINT('',(-29.5,3.,60.125));
#397=CARTESIAN_POINT('',(1.00000001490116,11.0000001639128,63.5));
#398=CARTESIAN_POINT('',(1.00000001490116,11.0000001639128,63.5));
#399=CARTESIAN_POINT('',(1.,11.0000001600043,59.499999627471));
#400=CARTESIAN_POINT('Origin',(1.,3.,55.4999992549419));
#401=CARTESIAN_POINT('',(1.,23.,63.4999992549419));
#402=CARTESIAN_POINT('',(1.,3.,63.4999992549419));
#403=CARTESIAN_POINT('',(1.,23.,55.4999992549419));
#404=CARTESIAN_POINT('',(1.,23.,50.0000007450581));
#405=CARTESIAN_POINT('',(1.,3.,55.4999992549419));
#406=CARTESIAN_POINT('Origin',(9.,3.,55.4999992549419));
#407=CARTESIAN_POINT('',(5.,3.,55.4999992549419));
#408=CARTESIAN_POINT('',(9.,23.,55.4999992549419));
#409=CARTESIAN_POINT('',(1.,23.,55.4999992549419));
#410=CARTESIAN_POINT('',(9.,3.,55.4999992549419));
#411=CARTESIAN_POINT('Origin',(9.,3.,63.4999992549419));
#412=CARTESIAN_POINT('',(9.,23.,63.4999992549419));
#413=CARTESIAN_POINT('',(9.,23.,63.4999992549419));
#414=CARTESIAN_POINT('',(9.,3.,63.4999992549419));
#415=CARTESIAN_POINT('Origin',(5.,23.,59.4999992549419));
#416=CARTESIAN_POINT('',(1.,23.,63.4999992549419));
#417=CARTESIAN_POINT('Origin',(-55.,0.,56.75));
#418=CARTESIAN_POINT('',(-57.,3.,56.75));
#419=CARTESIAN_POINT('Origin',(-55.,3.,56.75));
#420=CARTESIAN_POINT('',(-57.,0.,56.75));
#421=CARTESIAN_POINT('',(-57.,0.,56.75));
#422=CARTESIAN_POINT('Origin',(-55.,0.,56.75));
#423=CARTESIAN_POINT('Origin',(65.,0.,56.75));
#424=CARTESIAN_POINT('',(63.,3.,56.75));
#425=CARTESIAN_POINT('Origin',(65.,3.,56.75));
#426=CARTESIAN_POINT('',(63.,0.,56.75));
#427=CARTESIAN_POINT('',(63.,0.,56.75));
#428=CARTESIAN_POINT('Origin',(65.,0.,56.75));
#429=CARTESIAN_POINT('Origin',(-60.,0.,50.));
#430=CARTESIAN_POINT('',(-60.,0.,63.5));
#431=CARTESIAN_POINT('',(-60.,0.,50.));
#432=CARTESIAN_POINT('',(-60.,0.,63.5));
#433=CARTESIAN_POINT('',(-60.,3.,63.5));
#434=CARTESIAN_POINT('',(-60.,0.,63.5));
#435=CARTESIAN_POINT('',(-60.,3.,50.));
#436=CARTESIAN_POINT('',(-60.,3.,63.5));
#437=CARTESIAN_POINT('',(-60.,0.,50.));
#438=CARTESIAN_POINT('Origin',(70.,0.,50.));
#439=CARTESIAN_POINT('',(70.,0.,50.));
#440=CARTESIAN_POINT('',(-60.,0.,50.));
#441=CARTESIAN_POINT('',(70.,3.,50.));
#442=CARTESIAN_POINT('',(-60.,3.,50.));
#443=CARTESIAN_POINT('',(70.,0.,50.));
#444=CARTESIAN_POINT('Origin',(70.,0.,63.5));
#445=CARTESIAN_POINT('',(70.,0.,63.5));
#446=CARTESIAN_POINT('',(70.,0.,50.));
#447=CARTESIAN_POINT('',(70.,3.,63.5));
#448=CARTESIAN_POINT('',(70.,3.,50.));
#449=CARTESIAN_POINT('',(70.,0.,63.5));
#450=CARTESIAN_POINT('Origin',(-60.,0.,63.5));
#451=CARTESIAN_POINT('',(70.,0.,63.5));
#452=CARTESIAN_POINT('',(70.,3.,63.5));
#453=CARTESIAN_POINT('',(70.,3.,63.5));
#454=CARTESIAN_POINT('Origin',(5.,3.,56.75));
#455=CARTESIAN_POINT('Origin',(5.,0.,56.75));
#456=UNCERTAINTY_MEASURE_WITH_UNIT(LENGTH_MEASURE(0.01),#462,
'DISTANCE_ACCURACY_VALUE',
'Maximum model space distance between geometric entities at asserted c
onnectivities');
#457=UNCERTAINTY_MEASURE_WITH_UNIT(LENGTH_MEASURE(0.01),#462,
'DISTANCE_ACCURACY_VALUE',
'Maximum model space distance between geometric entities at asserted c
onnectivities');
#458=(
GEOMETRIC_REPRESENTATION_CONTEXT(3)
GLOBAL_UNCERTAINTY_ASSIGNED_CONTEXT((#456))
GLOBAL_UNIT_ASSIGNED_CONTEXT((#462,#461,#460))
REPRESENTATION_CONTEXT('','3D')
);
#459=(
GEOMETRIC_REPRESENTATION_CONTEXT(3)
GLOBAL_UNCERTAINTY_ASSIGNED_CONTEXT((#457))
GLOBAL_UNIT_ASSIGNED_CONTEXT((#462,#461,#460))
REPRESENTATION_CONTEXT('','3D')
);
#460=(
NAMED_UNIT(*)
SI_UNIT($,.STERADIAN.)
SOLID_ANGLE_UNIT()
);
#461=(
NAMED_UNIT(*)
PLANE_ANGLE_UNIT()
SI_UNIT($,.RADIAN.)
);
#462=(
LENGTH_UNIT()
NAMED_UNIT(*)
SI_UNIT(.MILLI.,.METRE.)
);
#463=(
LENGTH_UNIT()
NAMED_UNIT(*)
SI_UNIT($,.METRE.)
);
#464=SHAPE_DEFINITION_REPRESENTATION(#465,#466);
#465=PRODUCT_DEFINITION_SHAPE('',$,#468);
#466=SHAPE_REPRESENTATION('',(#292),#458);
#467=PRODUCT_DEFINITION_CONTEXT('part definition',#472,'design');
#468=PRODUCT_DEFINITION('butee porte longue v4',
'butee porte longue v4 v1',#469,#467);
#469=PRODUCT_DEFINITION_FORMATION('',$,#474);
#470=PRODUCT_RELATED_PRODUCT_CATEGORY('butee porte longue v4 v1',
'butee porte longue v4 v1',(#474));
#471=APPLICATION_PROTOCOL_DEFINITION('international standard',
'automotive_design',2009,#472);
#472=APPLICATION_CONTEXT(
'Core Data for Automotive Mechanical Design Process');
#473=PRODUCT_CONTEXT('part definition',#472,'mechanical');
#474=PRODUCT('butee porte longue v4','butee porte longue v4 v1',$,(#473));
#475=PRESENTATION_STYLE_ASSIGNMENT((#476));
#476=SURFACE_STYLE_USAGE(.BOTH.,#477);
#477=SURFACE_SIDE_STYLE('',(#478));
#478=SURFACE_STYLE_FILL_AREA(#479);
#479=FILL_AREA_STYLE('Steel - Satin',(#480));
#480=FILL_AREA_STYLE_COLOUR('Steel - Satin',#481);
#481=COLOUR_RGB('Steel - Satin',0.627450980392157,0.627450980392157,0.627450980392157);
ENDSEC;
END-ISO-10303-21;
