ISO-10303-21;
HEADER;
/* Generated by software containing ST-Developer
 * from STEP Tools, Inc. (www.steptools.com) 
 */

FILE_DESCRIPTION(
/* description */ (''),
/* implementation_level */ '2;1');

FILE_NAME(
/* name */ 
'/Users/b-kopterlabs/Documents/__Fusion_360/PDW850 hot shoe/PDW850 hot
 shoe v7-support.step',
/* time_stamp */ '2018-08-17T15:33:12+02:00',
/* author */ ('seb.bougeard'),
/* organization */ (''),
/* preprocessor_version */ 'ST-DEVELOPER v17',
/* originating_system */ 'Autodesk Translation Framework v7.1.0.215',
/* authorisation */ '');

FILE_SCHEMA (('AUTOMOTIVE_DESIGN { 1 0 10303 214 3 1 1 }'));
ENDSEC;

DATA;
#10=MECHANICAL_DESIGN_GEOMETRIC_PRESENTATION_REPRESENTATION('',(#13),#678);
#11=SHAPE_REPRESENTATION_RELATIONSHIP('SRR','None',#685,#12);
#12=ADVANCED_BREP_SHAPE_REPRESENTATION('',(#14),#677);
#13=STYLED_ITEM('',(#694),#14);
#14=MANIFOLD_SOLID_BREP('Body3',#416);
#15=FACE_BOUND('',#62,.T.);
#16=FACE_BOUND('',#67,.T.);
#17=FACE_BOUND('',#70,.T.);
#18=FACE_BOUND('',#78,.T.);
#19=FACE_BOUND('',#79,.T.);
#20=FACE_BOUND('',#84,.T.);
#21=PLANE('',#433);
#22=PLANE('',#440);
#23=PLANE('',#441);
#24=PLANE('',#442);
#25=PLANE('',#443);
#26=PLANE('',#444);
#27=PLANE('',#445);
#28=PLANE('',#446);
#29=PLANE('',#447);
#30=PLANE('',#448);
#31=PLANE('',#449);
#32=PLANE('',#450);
#33=PLANE('',#451);
#34=PLANE('',#452);
#35=PLANE('',#453);
#36=PLANE('',#454);
#37=PLANE('',#455);
#38=PLANE('',#456);
#39=FACE_OUTER_BOUND('',#60,.T.);
#40=FACE_OUTER_BOUND('',#61,.T.);
#41=FACE_OUTER_BOUND('',#63,.T.);
#42=FACE_OUTER_BOUND('',#64,.T.);
#43=FACE_OUTER_BOUND('',#65,.T.);
#44=FACE_OUTER_BOUND('',#66,.T.);
#45=FACE_OUTER_BOUND('',#68,.T.);
#46=FACE_OUTER_BOUND('',#69,.T.);
#47=FACE_OUTER_BOUND('',#71,.T.);
#48=FACE_OUTER_BOUND('',#72,.T.);
#49=FACE_OUTER_BOUND('',#73,.T.);
#50=FACE_OUTER_BOUND('',#74,.T.);
#51=FACE_OUTER_BOUND('',#75,.T.);
#52=FACE_OUTER_BOUND('',#76,.T.);
#53=FACE_OUTER_BOUND('',#77,.T.);
#54=FACE_OUTER_BOUND('',#80,.T.);
#55=FACE_OUTER_BOUND('',#81,.T.);
#56=FACE_OUTER_BOUND('',#82,.T.);
#57=FACE_OUTER_BOUND('',#83,.T.);
#58=FACE_OUTER_BOUND('',#85,.T.);
#59=FACE_OUTER_BOUND('',#86,.T.);
#60=EDGE_LOOP('',(#282,#283,#284,#285));
#61=EDGE_LOOP('',(#286,#287,#288,#289,#290,#291));
#62=EDGE_LOOP('',(#292));
#63=EDGE_LOOP('',(#293,#294,#295,#296));
#64=EDGE_LOOP('',(#297,#298,#299,#300));
#65=EDGE_LOOP('',(#301,#302,#303,#304,#305));
#66=EDGE_LOOP('',(#306,#307,#308,#309));
#67=EDGE_LOOP('',(#310));
#68=EDGE_LOOP('',(#311,#312,#313,#314,#315));
#69=EDGE_LOOP('',(#316,#317,#318,#319));
#70=EDGE_LOOP('',(#320));
#71=EDGE_LOOP('',(#321,#322,#323,#324));
#72=EDGE_LOOP('',(#325,#326,#327,#328));
#73=EDGE_LOOP('',(#329,#330,#331,#332));
#74=EDGE_LOOP('',(#333,#334,#335,#336,#337,#338,#339,#340,#341,#342,#343,
#344));
#75=EDGE_LOOP('',(#345,#346,#347,#348));
#76=EDGE_LOOP('',(#349,#350,#351,#352,#353,#354));
#77=EDGE_LOOP('',(#355,#356,#357,#358));
#78=EDGE_LOOP('',(#359));
#79=EDGE_LOOP('',(#360));
#80=EDGE_LOOP('',(#361,#362,#363,#364,#365,#366));
#81=EDGE_LOOP('',(#367,#368,#369,#370));
#82=EDGE_LOOP('',(#371,#372,#373,#374));
#83=EDGE_LOOP('',(#375,#376,#377,#378));
#84=EDGE_LOOP('',(#379));
#85=EDGE_LOOP('',(#380,#381,#382,#383));
#86=EDGE_LOOP('',(#384,#385,#386,#387,#388,#389,#390,#391));
#87=LINE('',#567,#136);
#88=LINE('',#572,#137);
#89=LINE('',#574,#138);
#90=LINE('',#576,#139);
#91=LINE('',#578,#140);
#92=LINE('',#580,#141);
#93=LINE('',#581,#142);
#94=LINE('',#586,#143);
#95=LINE('',#592,#144);
#96=LINE('',#596,#145);
#97=LINE('',#598,#146);
#98=LINE('',#600,#147);
#99=LINE('',#602,#148);
#100=LINE('',#603,#149);
#101=LINE('',#606,#150);
#102=LINE('',#608,#151);
#103=LINE('',#609,#152);
#104=LINE('',#612,#153);
#105=LINE('',#613,#154);
#106=LINE('',#615,#155);
#107=LINE('',#616,#156);
#108=LINE('',#618,#157);
#109=LINE('',#619,#158);
#110=LINE('',#624,#159);
#111=LINE('',#626,#160);
#112=LINE('',#627,#161);
#113=LINE('',#630,#162);
#114=LINE('',#632,#163);
#115=LINE('',#634,#164);
#116=LINE('',#636,#165);
#117=LINE('',#638,#166);
#118=LINE('',#640,#167);
#119=LINE('',#641,#168);
#120=LINE('',#644,#169);
#121=LINE('',#646,#170);
#122=LINE('',#647,#171);
#123=LINE('',#650,#172);
#124=LINE('',#651,#173);
#125=LINE('',#654,#174);
#126=LINE('',#655,#175);
#127=LINE('',#658,#176);
#128=LINE('',#659,#177);
#129=LINE('',#662,#178);
#130=LINE('',#663,#179);
#131=LINE('',#666,#180);
#132=LINE('',#667,#181);
#133=LINE('',#670,#182);
#134=LINE('',#671,#183);
#135=LINE('',#673,#184);
#136=VECTOR('',#463,2.5);
#137=VECTOR('',#468,10.);
#138=VECTOR('',#469,10.);
#139=VECTOR('',#470,10.);
#140=VECTOR('',#471,10.);
#141=VECTOR('',#472,10.);
#142=VECTOR('',#473,10.);
#143=VECTOR('',#478,3.);
#144=VECTOR('',#485,3.);
#145=VECTOR('',#490,10.);
#146=VECTOR('',#491,10.);
#147=VECTOR('',#492,10.);
#148=VECTOR('',#493,10.);
#149=VECTOR('',#494,10.);
#150=VECTOR('',#497,10.);
#151=VECTOR('',#498,10.);
#152=VECTOR('',#499,10.);
#153=VECTOR('',#502,10.);
#154=VECTOR('',#503,10.);
#155=VECTOR('',#504,10.);
#156=VECTOR('',#505,10.);
#157=VECTOR('',#508,10.);
#158=VECTOR('',#509,10.);
#159=VECTOR('',#516,10.);
#160=VECTOR('',#517,10.);
#161=VECTOR('',#518,10.);
#162=VECTOR('',#521,10.);
#163=VECTOR('',#522,10.);
#164=VECTOR('',#523,10.);
#165=VECTOR('',#524,10.);
#166=VECTOR('',#525,10.);
#167=VECTOR('',#526,10.);
#168=VECTOR('',#527,10.);
#169=VECTOR('',#530,10.);
#170=VECTOR('',#531,10.);
#171=VECTOR('',#532,10.);
#172=VECTOR('',#535,10.);
#173=VECTOR('',#536,10.);
#174=VECTOR('',#539,10.);
#175=VECTOR('',#540,10.);
#176=VECTOR('',#543,10.);
#177=VECTOR('',#544,10.);
#178=VECTOR('',#547,10.);
#179=VECTOR('',#548,10.);
#180=VECTOR('',#551,10.);
#181=VECTOR('',#552,10.);
#182=VECTOR('',#555,10.);
#183=VECTOR('',#556,10.);
#184=VECTOR('',#559,10.);
#185=CIRCLE('',#431,2.5);
#186=CIRCLE('',#432,2.5);
#187=CIRCLE('',#435,3.);
#188=CIRCLE('',#436,3.);
#189=CIRCLE('',#438,2.117);
#190=CIRCLE('',#439,2.117);
#191=VERTEX_POINT('',#564);
#192=VERTEX_POINT('',#566);
#193=VERTEX_POINT('',#570);
#194=VERTEX_POINT('',#571);
#195=VERTEX_POINT('',#573);
#196=VERTEX_POINT('',#575);
#197=VERTEX_POINT('',#577);
#198=VERTEX_POINT('',#579);
#199=VERTEX_POINT('',#583);
#200=VERTEX_POINT('',#585);
#201=VERTEX_POINT('',#589);
#202=VERTEX_POINT('',#591);
#203=VERTEX_POINT('',#595);
#204=VERTEX_POINT('',#597);
#205=VERTEX_POINT('',#599);
#206=VERTEX_POINT('',#601);
#207=VERTEX_POINT('',#605);
#208=VERTEX_POINT('',#607);
#209=VERTEX_POINT('',#611);
#210=VERTEX_POINT('',#614);
#211=VERTEX_POINT('',#623);
#212=VERTEX_POINT('',#625);
#213=VERTEX_POINT('',#629);
#214=VERTEX_POINT('',#631);
#215=VERTEX_POINT('',#633);
#216=VERTEX_POINT('',#635);
#217=VERTEX_POINT('',#637);
#218=VERTEX_POINT('',#639);
#219=VERTEX_POINT('',#643);
#220=VERTEX_POINT('',#645);
#221=VERTEX_POINT('',#649);
#222=VERTEX_POINT('',#653);
#223=VERTEX_POINT('',#657);
#224=VERTEX_POINT('',#661);
#225=VERTEX_POINT('',#665);
#226=VERTEX_POINT('',#669);
#227=EDGE_CURVE('',#191,#191,#185,.T.);
#228=EDGE_CURVE('',#191,#192,#87,.T.);
#229=EDGE_CURVE('',#192,#192,#186,.T.);
#230=EDGE_CURVE('',#193,#194,#88,.T.);
#231=EDGE_CURVE('',#194,#195,#89,.T.);
#232=EDGE_CURVE('',#196,#195,#90,.T.);
#233=EDGE_CURVE('',#197,#196,#91,.T.);
#234=EDGE_CURVE('',#198,#197,#92,.T.);
#235=EDGE_CURVE('',#193,#198,#93,.T.);
#236=EDGE_CURVE('',#199,#199,#187,.T.);
#237=EDGE_CURVE('',#199,#200,#94,.T.);
#238=EDGE_CURVE('',#200,#200,#188,.T.);
#239=EDGE_CURVE('',#201,#201,#189,.T.);
#240=EDGE_CURVE('',#201,#202,#95,.T.);
#241=EDGE_CURVE('',#202,#202,#190,.T.);
#242=EDGE_CURVE('',#203,#196,#96,.T.);
#243=EDGE_CURVE('',#196,#204,#97,.T.);
#244=EDGE_CURVE('',#204,#205,#98,.T.);
#245=EDGE_CURVE('',#206,#205,#99,.T.);
#246=EDGE_CURVE('',#203,#206,#100,.T.);
#247=EDGE_CURVE('',#207,#203,#101,.T.);
#248=EDGE_CURVE('',#208,#206,#102,.T.);
#249=EDGE_CURVE('',#207,#208,#103,.T.);
#250=EDGE_CURVE('',#209,#197,#104,.T.);
#251=EDGE_CURVE('',#197,#207,#105,.T.);
#252=EDGE_CURVE('',#210,#208,#106,.T.);
#253=EDGE_CURVE('',#209,#210,#107,.T.);
#254=EDGE_CURVE('',#209,#204,#108,.T.);
#255=EDGE_CURVE('',#205,#210,#109,.T.);
#256=EDGE_CURVE('',#211,#193,#110,.T.);
#257=EDGE_CURVE('',#211,#212,#111,.T.);
#258=EDGE_CURVE('',#212,#194,#112,.T.);
#259=EDGE_CURVE('',#195,#213,#113,.T.);
#260=EDGE_CURVE('',#214,#213,#114,.T.);
#261=EDGE_CURVE('',#215,#214,#115,.T.);
#262=EDGE_CURVE('',#216,#215,#116,.T.);
#263=EDGE_CURVE('',#216,#217,#117,.T.);
#264=EDGE_CURVE('',#217,#218,#118,.T.);
#265=EDGE_CURVE('',#218,#198,#119,.T.);
#266=EDGE_CURVE('',#217,#219,#120,.T.);
#267=EDGE_CURVE('',#220,#219,#121,.T.);
#268=EDGE_CURVE('',#218,#220,#122,.T.);
#269=EDGE_CURVE('',#221,#220,#123,.T.);
#270=EDGE_CURVE('',#221,#211,#124,.T.);
#271=EDGE_CURVE('',#222,#221,#125,.T.);
#272=EDGE_CURVE('',#222,#212,#126,.T.);
#273=EDGE_CURVE('',#223,#222,#127,.T.);
#274=EDGE_CURVE('',#213,#223,#128,.T.);
#275=EDGE_CURVE('',#224,#223,#129,.T.);
#276=EDGE_CURVE('',#214,#224,#130,.T.);
#277=EDGE_CURVE('',#225,#224,#131,.T.);
#278=EDGE_CURVE('',#215,#225,#132,.T.);
#279=EDGE_CURVE('',#226,#225,#133,.T.);
#280=EDGE_CURVE('',#216,#226,#134,.T.);
#281=EDGE_CURVE('',#219,#226,#135,.T.);
#282=ORIENTED_EDGE('',*,*,#227,.F.);
#283=ORIENTED_EDGE('',*,*,#228,.T.);
#284=ORIENTED_EDGE('',*,*,#229,.F.);
#285=ORIENTED_EDGE('',*,*,#228,.F.);
#286=ORIENTED_EDGE('',*,*,#230,.T.);
#287=ORIENTED_EDGE('',*,*,#231,.T.);
#288=ORIENTED_EDGE('',*,*,#232,.F.);
#289=ORIENTED_EDGE('',*,*,#233,.F.);
#290=ORIENTED_EDGE('',*,*,#234,.F.);
#291=ORIENTED_EDGE('',*,*,#235,.F.);
#292=ORIENTED_EDGE('',*,*,#229,.T.);
#293=ORIENTED_EDGE('',*,*,#236,.F.);
#294=ORIENTED_EDGE('',*,*,#237,.T.);
#295=ORIENTED_EDGE('',*,*,#238,.F.);
#296=ORIENTED_EDGE('',*,*,#237,.F.);
#297=ORIENTED_EDGE('',*,*,#239,.F.);
#298=ORIENTED_EDGE('',*,*,#240,.T.);
#299=ORIENTED_EDGE('',*,*,#241,.F.);
#300=ORIENTED_EDGE('',*,*,#240,.F.);
#301=ORIENTED_EDGE('',*,*,#242,.T.);
#302=ORIENTED_EDGE('',*,*,#243,.T.);
#303=ORIENTED_EDGE('',*,*,#244,.T.);
#304=ORIENTED_EDGE('',*,*,#245,.F.);
#305=ORIENTED_EDGE('',*,*,#246,.F.);
#306=ORIENTED_EDGE('',*,*,#247,.T.);
#307=ORIENTED_EDGE('',*,*,#246,.T.);
#308=ORIENTED_EDGE('',*,*,#248,.F.);
#309=ORIENTED_EDGE('',*,*,#249,.F.);
#310=ORIENTED_EDGE('',*,*,#241,.T.);
#311=ORIENTED_EDGE('',*,*,#250,.T.);
#312=ORIENTED_EDGE('',*,*,#251,.T.);
#313=ORIENTED_EDGE('',*,*,#249,.T.);
#314=ORIENTED_EDGE('',*,*,#252,.F.);
#315=ORIENTED_EDGE('',*,*,#253,.F.);
#316=ORIENTED_EDGE('',*,*,#254,.F.);
#317=ORIENTED_EDGE('',*,*,#253,.T.);
#318=ORIENTED_EDGE('',*,*,#255,.F.);
#319=ORIENTED_EDGE('',*,*,#244,.F.);
#320=ORIENTED_EDGE('',*,*,#239,.T.);
#321=ORIENTED_EDGE('',*,*,#233,.T.);
#322=ORIENTED_EDGE('',*,*,#242,.F.);
#323=ORIENTED_EDGE('',*,*,#247,.F.);
#324=ORIENTED_EDGE('',*,*,#251,.F.);
#325=ORIENTED_EDGE('',*,*,#255,.T.);
#326=ORIENTED_EDGE('',*,*,#252,.T.);
#327=ORIENTED_EDGE('',*,*,#248,.T.);
#328=ORIENTED_EDGE('',*,*,#245,.T.);
#329=ORIENTED_EDGE('',*,*,#256,.F.);
#330=ORIENTED_EDGE('',*,*,#257,.T.);
#331=ORIENTED_EDGE('',*,*,#258,.T.);
#332=ORIENTED_EDGE('',*,*,#230,.F.);
#333=ORIENTED_EDGE('',*,*,#243,.F.);
#334=ORIENTED_EDGE('',*,*,#232,.T.);
#335=ORIENTED_EDGE('',*,*,#259,.T.);
#336=ORIENTED_EDGE('',*,*,#260,.F.);
#337=ORIENTED_EDGE('',*,*,#261,.F.);
#338=ORIENTED_EDGE('',*,*,#262,.F.);
#339=ORIENTED_EDGE('',*,*,#263,.T.);
#340=ORIENTED_EDGE('',*,*,#264,.T.);
#341=ORIENTED_EDGE('',*,*,#265,.T.);
#342=ORIENTED_EDGE('',*,*,#234,.T.);
#343=ORIENTED_EDGE('',*,*,#250,.F.);
#344=ORIENTED_EDGE('',*,*,#254,.T.);
#345=ORIENTED_EDGE('',*,*,#264,.F.);
#346=ORIENTED_EDGE('',*,*,#266,.T.);
#347=ORIENTED_EDGE('',*,*,#267,.F.);
#348=ORIENTED_EDGE('',*,*,#268,.F.);
#349=ORIENTED_EDGE('',*,*,#268,.T.);
#350=ORIENTED_EDGE('',*,*,#269,.F.);
#351=ORIENTED_EDGE('',*,*,#270,.T.);
#352=ORIENTED_EDGE('',*,*,#256,.T.);
#353=ORIENTED_EDGE('',*,*,#235,.T.);
#354=ORIENTED_EDGE('',*,*,#265,.F.);
#355=ORIENTED_EDGE('',*,*,#270,.F.);
#356=ORIENTED_EDGE('',*,*,#271,.F.);
#357=ORIENTED_EDGE('',*,*,#272,.T.);
#358=ORIENTED_EDGE('',*,*,#257,.F.);
#359=ORIENTED_EDGE('',*,*,#227,.T.);
#360=ORIENTED_EDGE('',*,*,#236,.T.);
#361=ORIENTED_EDGE('',*,*,#272,.F.);
#362=ORIENTED_EDGE('',*,*,#273,.F.);
#363=ORIENTED_EDGE('',*,*,#274,.F.);
#364=ORIENTED_EDGE('',*,*,#259,.F.);
#365=ORIENTED_EDGE('',*,*,#231,.F.);
#366=ORIENTED_EDGE('',*,*,#258,.F.);
#367=ORIENTED_EDGE('',*,*,#260,.T.);
#368=ORIENTED_EDGE('',*,*,#274,.T.);
#369=ORIENTED_EDGE('',*,*,#275,.F.);
#370=ORIENTED_EDGE('',*,*,#276,.F.);
#371=ORIENTED_EDGE('',*,*,#261,.T.);
#372=ORIENTED_EDGE('',*,*,#276,.T.);
#373=ORIENTED_EDGE('',*,*,#277,.F.);
#374=ORIENTED_EDGE('',*,*,#278,.F.);
#375=ORIENTED_EDGE('',*,*,#262,.T.);
#376=ORIENTED_EDGE('',*,*,#278,.T.);
#377=ORIENTED_EDGE('',*,*,#279,.F.);
#378=ORIENTED_EDGE('',*,*,#280,.F.);
#379=ORIENTED_EDGE('',*,*,#238,.T.);
#380=ORIENTED_EDGE('',*,*,#263,.F.);
#381=ORIENTED_EDGE('',*,*,#280,.T.);
#382=ORIENTED_EDGE('',*,*,#281,.F.);
#383=ORIENTED_EDGE('',*,*,#266,.F.);
#384=ORIENTED_EDGE('',*,*,#281,.T.);
#385=ORIENTED_EDGE('',*,*,#279,.T.);
#386=ORIENTED_EDGE('',*,*,#277,.T.);
#387=ORIENTED_EDGE('',*,*,#275,.T.);
#388=ORIENTED_EDGE('',*,*,#273,.T.);
#389=ORIENTED_EDGE('',*,*,#271,.T.);
#390=ORIENTED_EDGE('',*,*,#269,.T.);
#391=ORIENTED_EDGE('',*,*,#267,.T.);
#392=CYLINDRICAL_SURFACE('',#430,2.5);
#393=CYLINDRICAL_SURFACE('',#434,3.);
#394=CYLINDRICAL_SURFACE('',#437,2.117);
#395=ADVANCED_FACE('',(#39),#392,.F.);
#396=ADVANCED_FACE('',(#40,#15),#21,.T.);
#397=ADVANCED_FACE('',(#41),#393,.F.);
#398=ADVANCED_FACE('',(#42),#394,.F.);
#399=ADVANCED_FACE('',(#43),#22,.T.);
#400=ADVANCED_FACE('',(#44,#16),#23,.T.);
#401=ADVANCED_FACE('',(#45),#24,.T.);
#402=ADVANCED_FACE('',(#46,#17),#25,.T.);
#403=ADVANCED_FACE('',(#47),#26,.T.);
#404=ADVANCED_FACE('',(#48),#27,.T.);
#405=ADVANCED_FACE('',(#49),#28,.T.);
#406=ADVANCED_FACE('',(#50),#29,.F.);
#407=ADVANCED_FACE('',(#51),#30,.T.);
#408=ADVANCED_FACE('',(#52),#31,.T.);
#409=ADVANCED_FACE('',(#53,#18,#19),#32,.T.);
#410=ADVANCED_FACE('',(#54),#33,.T.);
#411=ADVANCED_FACE('',(#55),#34,.T.);
#412=ADVANCED_FACE('',(#56),#35,.T.);
#413=ADVANCED_FACE('',(#57,#20),#36,.T.);
#414=ADVANCED_FACE('',(#58),#37,.T.);
#415=ADVANCED_FACE('',(#59),#38,.T.);
#416=CLOSED_SHELL('',(#395,#396,#397,#398,#399,#400,#401,#402,#403,#404,
#405,#406,#407,#408,#409,#410,#411,#412,#413,#414,#415));
#417=DERIVED_UNIT_ELEMENT(#419,1.);
#418=DERIVED_UNIT_ELEMENT(#682,3.);
#419=(
MASS_UNIT()
NAMED_UNIT(*)
SI_UNIT(.KILO.,.GRAM.)
);
#420=DERIVED_UNIT((#417,#418));
#421=MEASURE_REPRESENTATION_ITEM('density measure',
POSITIVE_RATIO_MEASURE(7850.),#420);
#422=PROPERTY_DEFINITION_REPRESENTATION(#427,#424);
#423=PROPERTY_DEFINITION_REPRESENTATION(#428,#425);
#424=REPRESENTATION('material name',(#426),#677);
#425=REPRESENTATION('density',(#421),#677);
#426=DESCRIPTIVE_REPRESENTATION_ITEM('Steel','Steel');
#427=PROPERTY_DEFINITION('material property','material name',#687);
#428=PROPERTY_DEFINITION('material property','density of part',#687);
#429=AXIS2_PLACEMENT_3D('placement',#562,#457,#458);
#430=AXIS2_PLACEMENT_3D('',#563,#459,#460);
#431=AXIS2_PLACEMENT_3D('',#565,#461,#462);
#432=AXIS2_PLACEMENT_3D('',#568,#464,#465);
#433=AXIS2_PLACEMENT_3D('',#569,#466,#467);
#434=AXIS2_PLACEMENT_3D('',#582,#474,#475);
#435=AXIS2_PLACEMENT_3D('',#584,#476,#477);
#436=AXIS2_PLACEMENT_3D('',#587,#479,#480);
#437=AXIS2_PLACEMENT_3D('',#588,#481,#482);
#438=AXIS2_PLACEMENT_3D('',#590,#483,#484);
#439=AXIS2_PLACEMENT_3D('',#593,#486,#487);
#440=AXIS2_PLACEMENT_3D('',#594,#488,#489);
#441=AXIS2_PLACEMENT_3D('',#604,#495,#496);
#442=AXIS2_PLACEMENT_3D('',#610,#500,#501);
#443=AXIS2_PLACEMENT_3D('',#617,#506,#507);
#444=AXIS2_PLACEMENT_3D('',#620,#510,#511);
#445=AXIS2_PLACEMENT_3D('',#621,#512,#513);
#446=AXIS2_PLACEMENT_3D('',#622,#514,#515);
#447=AXIS2_PLACEMENT_3D('',#628,#519,#520);
#448=AXIS2_PLACEMENT_3D('',#642,#528,#529);
#449=AXIS2_PLACEMENT_3D('',#648,#533,#534);
#450=AXIS2_PLACEMENT_3D('',#652,#537,#538);
#451=AXIS2_PLACEMENT_3D('',#656,#541,#542);
#452=AXIS2_PLACEMENT_3D('',#660,#545,#546);
#453=AXIS2_PLACEMENT_3D('',#664,#549,#550);
#454=AXIS2_PLACEMENT_3D('',#668,#553,#554);
#455=AXIS2_PLACEMENT_3D('',#672,#557,#558);
#456=AXIS2_PLACEMENT_3D('',#674,#560,#561);
#457=DIRECTION('axis',(0.,0.,1.));
#458=DIRECTION('refdir',(1.,0.,0.));
#459=DIRECTION('center_axis',(1.00929365875014E-16,0.,-1.));
#460=DIRECTION('ref_axis',(1.,0.,1.00929365875014E-16));
#461=DIRECTION('center_axis',(8.22387425648264E-17,0.,-1.));
#462=DIRECTION('ref_axis',(1.,0.,1.00929365875014E-16));
#463=DIRECTION('',(1.00929365875014E-16,0.,-1.));
#464=DIRECTION('center_axis',(0.,0.,1.));
#465=DIRECTION('ref_axis',(1.,0.,1.00929365875014E-16));
#466=DIRECTION('center_axis',(0.,0.,-1.));
#467=DIRECTION('ref_axis',(-1.,0.,0.));
#468=DIRECTION('',(-1.,0.,0.));
#469=DIRECTION('',(0.,1.,0.));
#470=DIRECTION('',(-1.,0.,0.));
#471=DIRECTION('',(-1.,0.,0.));
#472=DIRECTION('',(-1.,0.,0.));
#473=DIRECTION('',(0.,1.,0.));
#474=DIRECTION('center_axis',(8.22387425648264E-17,0.,-1.));
#475=DIRECTION('ref_axis',(1.,0.,8.22387425648264E-17));
#476=DIRECTION('center_axis',(8.22387425648264E-17,0.,-1.));
#477=DIRECTION('ref_axis',(1.,0.,8.22387425648264E-17));
#478=DIRECTION('',(8.22387425648264E-17,0.,-1.));
#479=DIRECTION('center_axis',(0.,0.,1.));
#480=DIRECTION('ref_axis',(1.,0.,8.22387425648264E-17));
#481=DIRECTION('center_axis',(8.22387425648264E-17,0.,-1.));
#482=DIRECTION('ref_axis',(1.,0.,8.22387425648264E-17));
#483=DIRECTION('center_axis',(0.,0.,-1.));
#484=DIRECTION('ref_axis',(1.,0.,8.22387425648264E-17));
#485=DIRECTION('',(8.22387425648264E-17,0.,-1.));
#486=DIRECTION('center_axis',(0.,0.,1.));
#487=DIRECTION('ref_axis',(1.,0.,8.22387425648264E-17));
#488=DIRECTION('center_axis',(-1.,0.,0.));
#489=DIRECTION('ref_axis',(0.,0.,1.));
#490=DIRECTION('',(0.,0.,1.));
#491=DIRECTION('',(0.,0.,1.));
#492=DIRECTION('',(0.,1.,0.));
#493=DIRECTION('',(0.,0.,1.));
#494=DIRECTION('',(0.,1.,0.));
#495=DIRECTION('center_axis',(0.,0.,-1.));
#496=DIRECTION('ref_axis',(-1.,0.,0.));
#497=DIRECTION('',(-1.,0.,0.));
#498=DIRECTION('',(-1.,0.,0.));
#499=DIRECTION('',(0.,1.,0.));
#500=DIRECTION('center_axis',(1.,0.,0.));
#501=DIRECTION('ref_axis',(0.,0.,-1.));
#502=DIRECTION('',(0.,0.,-1.));
#503=DIRECTION('',(0.,0.,-1.));
#504=DIRECTION('',(0.,0.,-1.));
#505=DIRECTION('',(0.,1.,0.));
#506=DIRECTION('center_axis',(0.,0.,1.));
#507=DIRECTION('ref_axis',(1.,0.,0.));
#508=DIRECTION('',(-1.,0.,0.));
#509=DIRECTION('',(1.,0.,0.));
#510=DIRECTION('center_axis',(0.,-1.,0.));
#511=DIRECTION('ref_axis',(1.,0.,0.));
#512=DIRECTION('center_axis',(0.,1.,0.));
#513=DIRECTION('ref_axis',(0.,0.,1.));
#514=DIRECTION('center_axis',(0.,-1.,0.));
#515=DIRECTION('ref_axis',(0.,0.,-1.));
#516=DIRECTION('',(0.,0.,-1.));
#517=DIRECTION('',(-1.,0.,0.));
#518=DIRECTION('',(0.,0.,-1.));
#519=DIRECTION('center_axis',(0.,-1.,0.));
#520=DIRECTION('ref_axis',(1.,0.,0.));
#521=DIRECTION('',(0.,0.,1.));
#522=DIRECTION('',(-1.,0.,0.));
#523=DIRECTION('',(-6.93889390390723E-17,0.,-1.));
#524=DIRECTION('',(-1.,0.,0.));
#525=DIRECTION('',(0.,0.,-1.));
#526=DIRECTION('',(1.,0.,0.));
#527=DIRECTION('',(0.,0.,-1.));
#528=DIRECTION('center_axis',(0.,0.,-1.));
#529=DIRECTION('ref_axis',(-1.,0.,0.));
#530=DIRECTION('',(0.,1.,0.));
#531=DIRECTION('',(-1.,0.,0.));
#532=DIRECTION('',(0.,1.,0.));
#533=DIRECTION('center_axis',(1.,0.,0.));
#534=DIRECTION('ref_axis',(0.,0.,-1.));
#535=DIRECTION('',(0.,0.,-1.));
#536=DIRECTION('',(0.,-1.,0.));
#537=DIRECTION('center_axis',(-8.22387425648264E-17,0.,1.));
#538=DIRECTION('ref_axis',(1.,0.,8.22387425648264E-17));
#539=DIRECTION('',(1.,0.,8.22387425648264E-17));
#540=DIRECTION('',(0.,-1.,0.));
#541=DIRECTION('center_axis',(-1.,0.,6.93889390390723E-17));
#542=DIRECTION('ref_axis',(6.93889390390723E-17,0.,1.));
#543=DIRECTION('',(6.93889390390723E-17,0.,1.));
#544=DIRECTION('',(0.,1.,0.));
#545=DIRECTION('center_axis',(0.,0.,-1.));
#546=DIRECTION('ref_axis',(-1.,0.,0.));
#547=DIRECTION('',(-1.,0.,0.));
#548=DIRECTION('',(0.,1.,0.));
#549=DIRECTION('center_axis',(1.,0.,-6.93889390390723E-17));
#550=DIRECTION('ref_axis',(-6.93889390390723E-17,0.,-1.));
#551=DIRECTION('',(-6.93889390390723E-17,0.,-1.));
#552=DIRECTION('',(0.,1.,0.));
#553=DIRECTION('center_axis',(0.,0.,-1.));
#554=DIRECTION('ref_axis',(-1.,0.,0.));
#555=DIRECTION('',(-1.,0.,0.));
#556=DIRECTION('',(0.,1.,0.));
#557=DIRECTION('center_axis',(-1.,0.,0.));
#558=DIRECTION('ref_axis',(0.,0.,1.));
#559=DIRECTION('',(0.,0.,1.));
#560=DIRECTION('center_axis',(0.,1.,0.));
#561=DIRECTION('ref_axis',(0.,0.,1.));
#562=CARTESIAN_POINT('',(0.,0.,0.));
#563=CARTESIAN_POINT('Origin',(9.,-10.,6.));
#564=CARTESIAN_POINT('',(6.5,-10.,6.));
#565=CARTESIAN_POINT('Origin',(9.,-10.,6.));
#566=CARTESIAN_POINT('',(6.5,-10.,-15.9998415408158));
#567=CARTESIAN_POINT('',(6.5,-10.,6.));
#568=CARTESIAN_POINT('Origin',(9.,-10.,-15.9998415408158));
#569=CARTESIAN_POINT('Origin',(22.5,-20.,-15.9998415408158));
#570=CARTESIAN_POINT('',(22.5,-20.,-15.9998415408158));
#571=CARTESIAN_POINT('',(-4.5,-20.,-15.9998415408158));
#572=CARTESIAN_POINT('',(22.5,-20.,-15.9998415408158));
#573=CARTESIAN_POINT('',(-4.5,0.,-15.9998415408158));
#574=CARTESIAN_POINT('',(-4.5,-20.,-15.9998415408158));
#575=CARTESIAN_POINT('',(3.,0.,-15.9998415408158));
#576=CARTESIAN_POINT('',(22.5,0.,-15.9998415408158));
#577=CARTESIAN_POINT('',(15.,0.,-15.9998415408158));
#578=CARTESIAN_POINT('',(15.75,0.,-15.9998415408158));
#579=CARTESIAN_POINT('',(22.5,0.,-15.9998415408158));
#580=CARTESIAN_POINT('',(22.5,0.,-15.9998415408158));
#581=CARTESIAN_POINT('',(22.5,-20.,-15.9998415408158));
#582=CARTESIAN_POINT('Origin',(9.,9.5,6.));
#583=CARTESIAN_POINT('',(6.,9.5,6.));
#584=CARTESIAN_POINT('Origin',(9.,9.5,6.));
#585=CARTESIAN_POINT('',(6.,9.5,2.));
#586=CARTESIAN_POINT('',(6.,9.5,6.));
#587=CARTESIAN_POINT('Origin',(9.,9.5,2.));
#588=CARTESIAN_POINT('Origin',(9.,9.5,6.));
#589=CARTESIAN_POINT('',(6.883,9.5,-6.));
#590=CARTESIAN_POINT('Origin',(9.,9.5,-6.));
#591=CARTESIAN_POINT('',(6.883,9.5,-16.));
#592=CARTESIAN_POINT('',(6.883,9.5,6.));
#593=CARTESIAN_POINT('Origin',(9.,9.5,-16.));
#594=CARTESIAN_POINT('Origin',(3.,0.,-16.));
#595=CARTESIAN_POINT('',(3.,0.,-16.));
#596=CARTESIAN_POINT('',(3.,0.,-16.));
#597=CARTESIAN_POINT('',(3.,0.,-6.));
#598=CARTESIAN_POINT('',(3.,0.,-16.));
#599=CARTESIAN_POINT('',(3.,20.,-6.));
#600=CARTESIAN_POINT('',(3.,0.,-6.));
#601=CARTESIAN_POINT('',(3.,20.,-16.));
#602=CARTESIAN_POINT('',(3.,20.,-16.));
#603=CARTESIAN_POINT('',(3.,0.,-16.));
#604=CARTESIAN_POINT('Origin',(15.,0.,-16.));
#605=CARTESIAN_POINT('',(15.,0.,-16.));
#606=CARTESIAN_POINT('',(15.,0.,-16.));
#607=CARTESIAN_POINT('',(15.,20.,-16.));
#608=CARTESIAN_POINT('',(15.,20.,-16.));
#609=CARTESIAN_POINT('',(15.,0.,-16.));
#610=CARTESIAN_POINT('Origin',(15.,0.,-6.));
#611=CARTESIAN_POINT('',(15.,0.,-6.));
#612=CARTESIAN_POINT('',(15.,0.,-6.));
#613=CARTESIAN_POINT('',(15.,0.,-6.));
#614=CARTESIAN_POINT('',(15.,20.,-6.));
#615=CARTESIAN_POINT('',(15.,20.,-6.));
#616=CARTESIAN_POINT('',(15.,0.,-6.));
#617=CARTESIAN_POINT('Origin',(3.,0.,-6.));
#618=CARTESIAN_POINT('',(6.,0.,-6.));
#619=CARTESIAN_POINT('',(15.5001237494436,20.,-6.));
#620=CARTESIAN_POINT('Origin',(9.,0.,-11.));
#621=CARTESIAN_POINT('Origin',(9.,20.,-11.));
#622=CARTESIAN_POINT('Origin',(9.,-20.,-4.92392077040789));
#623=CARTESIAN_POINT('',(22.5,-20.,6.));
#624=CARTESIAN_POINT('',(22.5,-20.,-15.8478415408158));
#625=CARTESIAN_POINT('',(-4.5,-20.,6.));
#626=CARTESIAN_POINT('',(-4.5,-20.,6.));
#627=CARTESIAN_POINT('',(-4.5,-20.,-15.8478415408158));
#628=CARTESIAN_POINT('Origin',(9.,0.,-4.92392077040789));
#629=CARTESIAN_POINT('',(-4.5,0.,-2.));
#630=CARTESIAN_POINT('',(-4.5,0.,-15.8478415408158));
#631=CARTESIAN_POINT('',(-0.500000000000001,0.,-2.));
#632=CARTESIAN_POINT('',(-0.500000000000001,0.,-2.));
#633=CARTESIAN_POINT('',(-0.5,0.,2.));
#634=CARTESIAN_POINT('',(-0.5,0.,2.));
#635=CARTESIAN_POINT('',(18.5,0.,2.));
#636=CARTESIAN_POINT('',(9.,0.,2.));
#637=CARTESIAN_POINT('',(18.5,0.,-2.));
#638=CARTESIAN_POINT('',(18.5,0.,2.));
#639=CARTESIAN_POINT('',(22.5,0.,-2.));
#640=CARTESIAN_POINT('',(18.5,0.,-2.));
#641=CARTESIAN_POINT('',(22.5,0.,-15.8478415408158));
#642=CARTESIAN_POINT('Origin',(22.5,0.,-2.));
#643=CARTESIAN_POINT('',(18.5,21.,-2.));
#644=CARTESIAN_POINT('',(18.5,0.,-2.));
#645=CARTESIAN_POINT('',(22.5,21.,-2.));
#646=CARTESIAN_POINT('',(18.5,21.,-2.));
#647=CARTESIAN_POINT('',(22.5,0.,-2.));
#648=CARTESIAN_POINT('Origin',(22.5,0.,6.));
#649=CARTESIAN_POINT('',(22.5,21.,6.));
#650=CARTESIAN_POINT('',(22.5,21.,-2.));
#651=CARTESIAN_POINT('',(22.5,0.,6.));
#652=CARTESIAN_POINT('Origin',(-4.5,0.,6.));
#653=CARTESIAN_POINT('',(-4.5,21.,6.));
#654=CARTESIAN_POINT('',(22.5,21.,6.));
#655=CARTESIAN_POINT('',(-4.5,0.,6.));
#656=CARTESIAN_POINT('Origin',(-4.5,0.,-2.));
#657=CARTESIAN_POINT('',(-4.5,21.,-2.));
#658=CARTESIAN_POINT('',(-4.5,21.,-2.));
#659=CARTESIAN_POINT('',(-4.5,0.,-2.));
#660=CARTESIAN_POINT('Origin',(-0.500000000000001,0.,-2.));
#661=CARTESIAN_POINT('',(-0.5,21.,-2.));
#662=CARTESIAN_POINT('',(-0.500000000000001,21.,-2.));
#663=CARTESIAN_POINT('',(-0.500000000000001,0.,-2.));
#664=CARTESIAN_POINT('Origin',(-0.5,0.,2.));
#665=CARTESIAN_POINT('',(-0.5,21.,2.));
#666=CARTESIAN_POINT('',(-0.5,21.,2.));
#667=CARTESIAN_POINT('',(-0.5,0.,2.));
#668=CARTESIAN_POINT('Origin',(18.5,0.,2.));
#669=CARTESIAN_POINT('',(18.5,21.,2.));
#670=CARTESIAN_POINT('',(9.,21.,2.));
#671=CARTESIAN_POINT('',(18.5,0.,2.));
#672=CARTESIAN_POINT('Origin',(18.5,0.,-2.));
#673=CARTESIAN_POINT('',(18.5,21.,2.));
#674=CARTESIAN_POINT('Origin',(9.,21.,2.));
#675=UNCERTAINTY_MEASURE_WITH_UNIT(LENGTH_MEASURE(0.01),#681,
'DISTANCE_ACCURACY_VALUE',
'Maximum model space distance between geometric entities at asserted c
onnectivities');
#676=UNCERTAINTY_MEASURE_WITH_UNIT(LENGTH_MEASURE(0.01),#681,
'DISTANCE_ACCURACY_VALUE',
'Maximum model space distance between geometric entities at asserted c
onnectivities');
#677=(
GEOMETRIC_REPRESENTATION_CONTEXT(3)
GLOBAL_UNCERTAINTY_ASSIGNED_CONTEXT((#675))
GLOBAL_UNIT_ASSIGNED_CONTEXT((#681,#680,#679))
REPRESENTATION_CONTEXT('','3D')
);
#678=(
GEOMETRIC_REPRESENTATION_CONTEXT(3)
GLOBAL_UNCERTAINTY_ASSIGNED_CONTEXT((#676))
GLOBAL_UNIT_ASSIGNED_CONTEXT((#681,#680,#679))
REPRESENTATION_CONTEXT('','3D')
);
#679=(
NAMED_UNIT(*)
SI_UNIT($,.STERADIAN.)
SOLID_ANGLE_UNIT()
);
#680=(
NAMED_UNIT(*)
PLANE_ANGLE_UNIT()
SI_UNIT($,.RADIAN.)
);
#681=(
LENGTH_UNIT()
NAMED_UNIT(*)
SI_UNIT(.MILLI.,.METRE.)
);
#682=(
LENGTH_UNIT()
NAMED_UNIT(*)
SI_UNIT($,.METRE.)
);
#683=SHAPE_DEFINITION_REPRESENTATION(#684,#685);
#684=PRODUCT_DEFINITION_SHAPE('',$,#687);
#685=SHAPE_REPRESENTATION('',(#429),#677);
#686=PRODUCT_DEFINITION_CONTEXT('part definition',#691,'design');
#687=PRODUCT_DEFINITION('PDW850 hot shoe','PDW850 hot shoe v7',#688,#686);
#688=PRODUCT_DEFINITION_FORMATION('',$,#693);
#689=PRODUCT_RELATED_PRODUCT_CATEGORY('PDW850 hot shoe v7',
'PDW850 hot shoe v7',(#693));
#690=APPLICATION_PROTOCOL_DEFINITION('international standard',
'automotive_design',2009,#691);
#691=APPLICATION_CONTEXT(
'Core Data for Automotive Mechanical Design Process');
#692=PRODUCT_CONTEXT('part definition',#691,'mechanical');
#693=PRODUCT('PDW850 hot shoe','PDW850 hot shoe v7',$,(#692));
#694=PRESENTATION_STYLE_ASSIGNMENT((#696));
#695=PRESENTATION_STYLE_ASSIGNMENT((#697));
#696=SURFACE_STYLE_USAGE(.BOTH.,#698);
#697=SURFACE_STYLE_USAGE(.BOTH.,#699);
#698=SURFACE_SIDE_STYLE('',(#700));
#699=SURFACE_SIDE_STYLE('',(#701));
#700=SURFACE_STYLE_FILL_AREA(#702);
#701=SURFACE_STYLE_FILL_AREA(#703);
#702=FILL_AREA_STYLE('Steel - Satin',(#704));
#703=FILL_AREA_STYLE('Coating - Black Oxide',(#705));
#704=FILL_AREA_STYLE_COLOUR('Steel - Satin',#706);
#705=FILL_AREA_STYLE_COLOUR('Coating - Black Oxide',#707);
#706=COLOUR_RGB('Steel - Satin',0.627450980392157,0.627450980392157,0.627450980392157);
#707=COLOUR_RGB('Coating - Black Oxide',0.450980392156863,0.450980392156863,
0.450980392156863);
ENDSEC;
END-ISO-10303-21;
