ISO-10303-21;
HEADER;
FILE_DESCRIPTION (( 'STEP AP203' ),
    '1' );
FILE_NAME ('B022.STEP',
    '2018-08-06T15:17:30',
    ( 'admin1' ),
    ( 'Microsoft' ),
    'SwSTEP 2.0',
    'SolidWorks 2015',
    '' );
FILE_SCHEMA (( 'CONFIG_CONTROL_DESIGN' ));
ENDSEC;

DATA;
#1 = CARTESIAN_POINT ( 'NONE',  ( 150.0000000000000000, 8.000000000000000000, 0.0000000000000000000 ) ) ;
#2 = CARTESIAN_POINT ( 'NONE',  ( 0.0000000000000000000, -350.0000000000000000, 0.0000000000000000000 ) ) ;
#3 = FACE_OUTER_BOUND ( 'NONE', #346, .T. ) ;
#4 = CIRCLE ( 'NONE', #97, 7.000000000000000000 ) ;
#5 = LOCAL_TIME ( 17, 17, 30.00000000000000000, #13 ) ;
#6 = DIRECTION ( 'NONE',  ( 0.0000000000000000000, 1.000000000000000000, 0.0000000000000000000 ) ) ;
#7 = CYLINDRICAL_SURFACE ( 'NONE', #152, 7.000000000000000000 ) ;
#8 = CC_DESIGN_APPROVAL ( #372, ( #357 ) ) ;
#9 = CYLINDRICAL_SURFACE ( 'NONE', #148, 7.000000000000000000 ) ;
#10 = CLOSED_SHELL ( 'NONE', ( #316, #43, #261, #12, #198, #130 ) ) ;
#11 = AXIS2_PLACEMENT_3D ( 'NONE', #360, #161, #334 ) ;
#12 = ADVANCED_FACE ( 'NONE', ( #253, #205 ), #218, .F. ) ;
#13 = COORDINATED_UNIVERSAL_TIME_OFFSET ( 1, 0, .AHEAD. ) ;
#14 = VECTOR ( 'NONE', #335, 1000.000000000000000 ) ;
#15 = APPROVAL_DATE_TIME ( #254, #234 ) ;
#16 = ORIENTED_EDGE ( 'NONE', *, *, #298, .T. ) ;
#17 = CARTESIAN_POINT ( 'NONE',  ( 0.0000000000000000000, 0.0000000000000000000, 0.0000000000000000000 ) ) ;
#18 = UNCERTAINTY_MEASURE_WITH_UNIT (LENGTH_MEASURE( 1.000000000000000100E-005 ), #327, 'distance_accuracy_value', 'NONE');
#19 = EDGE_CURVE ( 'NONE', #143, #239, #371, .T. ) ;
#20 = PERSON_AND_ORGANIZATION_ROLE ( 'classification_officer' ) ;
#21 = EDGE_LOOP ( 'NONE', ( #103, #233 ) ) ;
#22 = PERSON_AND_ORGANIZATION_ROLE ( 'creator' ) ;
#23 = AXIS2_PLACEMENT_3D ( 'NONE', #274, #89, #241 ) ;
#24 = CARTESIAN_POINT ( 'NONE',  ( 150.0000000000000000, 8.000000000000001800, -8.599999999999999600 ) ) ;
#25 = CIRCLE ( 'NONE', #374, 7.000000000000000000 ) ;
#26 = ORIENTED_EDGE ( 'NONE', *, *, #120, .F. ) ;
#27 = DIRECTION ( 'NONE',  ( 0.0000000000000000000, 0.0000000000000000000, 1.000000000000000000 ) ) ;
#28 = DIRECTION ( 'NONE',  ( 0.0000000000000000000, 0.0000000000000000000, -1.000000000000000000 ) ) ;
#29 = CC_DESIGN_PERSON_AND_ORGANIZATION_ASSIGNMENT ( #78, #22, ( #357 ) ) ;
#30 = DIRECTION ( 'NONE',  ( 0.0000000000000000000, 0.0000000000000000000, 1.000000000000000000 ) ) ;
#31 = ORIENTED_EDGE ( 'NONE', *, *, #142, .T. ) ;
#32 = AXIS2_PLACEMENT_3D ( 'NONE', #356, #329, #114 ) ;
#33 = CARTESIAN_POINT ( 'NONE',  ( 150.0000000000000000, 8.000000000000000000, 7.000000000000000000 ) ) ;
#34 = APPROVAL_PERSON_ORGANIZATION ( #157, #87, #132 ) ;
#35 = LINE ( 'NONE', #296, #14 ) ;
#36 = PLANE ( 'NONE',  #299 ) ;
#37 = CARTESIAN_POINT ( 'NONE',  ( 0.0000000000000000000, 0.0000000000000000000, 0.0000000000000000000 ) ) ;
#38 = EDGE_CURVE ( 'NONE', #239, #194, #341, .T. ) ;
#39 = FACE_OUTER_BOUND ( 'NONE', #275, .T. ) ;
#40 = ORIENTED_EDGE ( 'NONE', *, *, #50, .T. ) ;
#41 = CIRCLE ( 'NONE', #221, 7.000000000000000000 ) ;
#42 = FACE_OUTER_BOUND ( 'NONE', #54, .T. ) ;
#43 = ADVANCED_FACE ( 'NONE', ( #162 ), #121, .T. ) ;
#44 = CC_DESIGN_DATE_AND_TIME_ASSIGNMENT ( #244, #175, ( #357 ) ) ;
#45 = AXIS2_PLACEMENT_3D ( 'NONE', #81, #183, #243 ) ;
#46 = ORIENTED_EDGE ( 'NONE', *, *, #363, .F. ) ;
#47 = APPROVAL_STATUS ( 'not_yet_approved' ) ;
#48 = CIRCLE ( 'NONE', #325, 8.599999999999999600 ) ;
#49 = CARTESIAN_POINT ( 'NONE',  ( 0.0000000000000000000, -344.8038475772933100, 0.0000000000000000000 ) ) ;
#50 = EDGE_CURVE ( 'NONE', #116, #194, #181, .T. ) ;
#51 = PLANE ( 'NONE',  #45 ) ;
#52 = CARTESIAN_POINT ( 'NONE',  ( -150.0000000000000000, 8.000000000000000000, 0.0000000000000000000 ) ) ;
#53 = VECTOR ( 'NONE', #251, 1000.000000000000000 ) ;
#54 = EDGE_LOOP ( 'NONE', ( #169, #295, #197, #202 ) ) ;
#55 = DIRECTION ( 'NONE',  ( -1.000000000000000000, -0.0000000000000000000, -0.0000000000000000000 ) ) ;
#56 = DIRECTION ( 'NONE',  ( 0.0000000000000000000, 0.0000000000000000000, -1.000000000000000000 ) ) ;
#57 = DIRECTION ( 'NONE',  ( 1.000000000000000000, 0.0000000000000000000, 0.0000000000000000000 ) ) ;
#58 = ORIENTED_EDGE ( 'NONE', *, *, #106, .T. ) ;
#59 = DIRECTION ( 'NONE',  ( 0.0000000000000000000, 0.0000000000000000000, 1.000000000000000000 ) ) ;
#60 = DIRECTION ( 'NONE',  ( 0.0000000000000000000, 0.0000000000000000000, -1.000000000000000000 ) ) ;
#61 = LINE ( 'NONE', #305, #138 ) ;
#62 = EDGE_CURVE ( 'NONE', #158, #222, #71, .T. ) ;
#63 = ORIENTED_EDGE ( 'NONE', *, *, #126, .F. ) ;
#64 = PRODUCT_DEFINITION_FORMATION_WITH_SPECIFIED_SOURCE ( 'ANY', '', #338, .NOT_KNOWN. ) ;
#65 = AXIS2_PLACEMENT_3D ( 'NONE', #333, #219, #30 ) ;
#66 = COORDINATED_UNIVERSAL_TIME_OFFSET ( 1, 0, .AHEAD. ) ;
#67 = FACE_OUTER_BOUND ( 'NONE', #238, .T. ) ;
#68 = ADVANCED_FACE ( 'NONE', ( #339 ), #36, .T. ) ;
#69 = ORGANIZATION ( 'UNSPECIFIED', 'UNSPECIFIED', '' ) ;
#70 = DATE_AND_TIME ( #191, #332 ) ;
#71 = LINE ( 'NONE', #342, #159 ) ;
#72 = EDGE_CURVE ( 'NONE', #75, #245, #48, .T. ) ;
#73 = CIRCLE ( 'NONE', #215, 4.000000000000031100 ) ;
#74 = APPROVAL_ROLE ( '' ) ;
#75 = VERTEX_POINT ( 'NONE', #124 ) ;
#76 = VERTEX_POINT ( 'NONE', #364 ) ;
#77 = DIRECTION ( 'NONE',  ( 0.0000000000000000000, 1.000000000000000000, 0.0000000000000000000 ) ) ;
#78 = PERSON_AND_ORGANIZATION ( #293, #69 ) ;
#79 = DIRECTION ( 'NONE',  ( -0.0000000000000000000, 1.000000000000000000, -0.0000000000000000000 ) ) ;
#80 = ORIENTED_EDGE ( 'NONE', *, *, #62, .F. ) ;
#81 = CARTESIAN_POINT ( 'NONE',  ( 0.0000000000000000000, -350.0000000000000000, 0.0000000000000000000 ) ) ;
#82 = ORIENTED_EDGE ( 'NONE', *, *, #72, .T. ) ;
#83 = COORDINATED_UNIVERSAL_TIME_OFFSET ( 1, 0, .AHEAD. ) ;
#84 = MANIFOLD_SOLID_BREP ( 'Chanfrein1', #213 ) ;
#85 = EDGE_CURVE ( 'NONE', #194, #193, #211, .T. ) ;
#86 = CARTESIAN_POINT ( 'NONE',  ( 8.572527594031473200E-016, -344.8038475772933100, -7.000000000000000000 ) ) ;
#87 = APPROVAL ( #373, 'UNSPECIFIED' ) ;
#88 = AXIS2_PLACEMENT_3D ( 'NONE', #17, #168, #201 ) ;
#89 = DIRECTION ( 'NONE',  ( -0.0000000000000000000, -1.000000000000000000, -0.0000000000000000000 ) ) ;
#90 = DIRECTION ( 'NONE',  ( 0.0000000000000000000, 0.0000000000000000000, -1.000000000000000000 ) ) ;
#91 = ORIENTED_EDGE ( 'NONE', *, *, #102, .F. ) ;
#92 = CARTESIAN_POINT ( 'NONE',  ( 150.0000000000000000, 8.000000000000000000, 0.0000000000000000000 ) ) ;
#93 = AXIS2_PLACEMENT_3D ( 'NONE', #94, #57, #249 ) ;
#94 = CARTESIAN_POINT ( 'NONE',  ( -150.0000000000000000, 8.000000000000000000, 0.0000000000000000000 ) ) ;
#95 = DIRECTION ( 'NONE',  ( 0.0000000000000000000, 0.0000000000000000000, 1.000000000000000000 ) ) ;
#96 = CALENDAR_DATE ( 2018, 6, 8 ) ;
#97 = AXIS2_PLACEMENT_3D ( 'NONE', #288, #79, #267 ) ;
#98 = CARTESIAN_POINT ( 'NONE',  ( -150.0000000000000000, 8.000000000000000000, 0.0000000000000000000 ) ) ;
#99 = ORIENTED_EDGE ( 'NONE', *, *, #85, .T. ) ;
#100 = VERTEX_POINT ( 'NONE', #192 ) ;
#101 = DIRECTION ( 'NONE',  ( -0.0000000000000000000, 1.000000000000000000, -0.0000000000000000000 ) ) ;
#102 = EDGE_CURVE ( 'NONE', #290, #193, #25, .T. ) ;
#103 = ORIENTED_EDGE ( 'NONE', *, *, #369, .T. ) ;
#104 = ADVANCED_FACE ( 'NONE', ( #42 ), #7, .T. ) ;
#105 = ORIENTED_EDGE ( 'NONE', *, *, #230, .T. ) ;
#106 = EDGE_CURVE ( 'NONE', #158, #76, #41, .T. ) ;
#107 = PERSON_AND_ORGANIZATION ( #293, #69 ) ;
#108 = APPLICATION_CONTEXT ( 'configuration controlled 3d designs of mechanical parts and assemblies' ) ;
#109 = CC_DESIGN_APPROVAL ( #87, ( #64 ) ) ;
#110 = VECTOR ( 'NONE', #55, 1000.000000000000000 ) ;
#111 = PERSON_AND_ORGANIZATION_ROLE ( 'design_supplier' ) ;
#112 = AXIS2_PLACEMENT_3D ( 'NONE', #271, #331, #247 ) ;
#113 = CIRCLE ( 'NONE', #173, 8.599999999999999600 ) ;
#114 = DIRECTION ( 'NONE',  ( 0.0000000000000000000, 0.0000000000000000000, -1.000000000000000000 ) ) ;
#115 = CARTESIAN_POINT ( 'NONE',  ( 150.0000000000000000, 8.000000000000000000, 0.0000000000000000000 ) ) ;
#116 = VERTEX_POINT ( 'NONE', #362 ) ;
#117 = CARTESIAN_POINT ( 'NONE',  ( 150.0000000000000000, 8.000000000000000000, 0.0000000000000000000 ) ) ;
#118 = CARTESIAN_POINT ( 'NONE',  ( 0.0000000000000000000, -344.8038475772933100, 7.000000000000000000 ) ) ;
#119 = CARTESIAN_POINT ( 'NONE',  ( 6.735557395310462700E-016, -350.0000000000000000, -4.000000000000031100 ) ) ;
#120 = EDGE_CURVE ( 'NONE', #100, #222, #231, .T. ) ;
#121 = CYLINDRICAL_SURFACE ( 'NONE', #164, 8.599999999999999600 ) ;
#122 = CIRCLE ( 'NONE', #336, 8.599999999999999600 ) ;
#123 = CARTESIAN_POINT ( 'NONE',  ( 0.0000000000000000000, 0.0000000000000000000, 0.0000000000000000000 ) ) ;
#124 = CARTESIAN_POINT ( 'NONE',  ( -150.0000000000000000, 8.000000000000000000, 8.599999999999999600 ) ) ;
#125 = DIRECTION ( 'NONE',  ( -1.000000000000000000, -0.0000000000000000000, -0.0000000000000000000 ) ) ;
#126 = EDGE_CURVE ( 'NONE', #328, #245, #35, .T. ) ;
#127 = CC_DESIGN_PERSON_AND_ORGANIZATION_ASSIGNMENT ( #177, #351, ( #64 ) ) ;
#128 = ORIENTED_EDGE ( 'NONE', *, *, #170, .T. ) ;
#129 = LINE ( 'NONE', #359, #110 ) ;
#130 = ADVANCED_FACE ( 'NONE', ( #39 ), #151, .F. ) ;
#131 = ORIENTED_EDGE ( 'NONE', *, *, #62, .T. ) ;
#132 = APPROVAL_ROLE ( '' ) ;
#133 = ORIENTED_EDGE ( 'NONE', *, *, #19, .F. ) ;
#134 = ORIENTED_EDGE ( 'NONE', *, *, #323, .F. ) ;
#135 =( NAMED_UNIT ( * ) SI_UNIT ( $, .STERADIAN. ) SOLID_ANGLE_UNIT ( ) );
#136 = CARTESIAN_POINT ( 'NONE',  ( 150.0000000000000000, 8.000000000000000000, 8.599999999999999600 ) ) ;
#137 = EDGE_CURVE ( 'NONE', #314, #328, #326, .T. ) ;
#138 = VECTOR ( 'NONE', #77, 1000.000000000000000 ) ;
#139 = CIRCLE ( 'NONE', #308, 7.000000000000000000 ) ;
#140 = PERSON_AND_ORGANIZATION_ROLE ( 'design_owner' ) ;
#141 = PLANE ( 'NONE',  #32 ) ;
#142 = EDGE_CURVE ( 'NONE', #222, #100, #227, .T. ) ;
#143 = VERTEX_POINT ( 'NONE', #119 ) ;
#144 = CARTESIAN_POINT ( 'NONE',  ( 0.0000000000000000000, -350.0000000000000000, 4.000000000000031100 ) ) ;
#145 = CC_DESIGN_PERSON_AND_ORGANIZATION_ASSIGNMENT ( #235, #111, ( #64 ) ) ;
#146 = DIRECTION ( 'NONE',  ( 0.0000000000000000000, 1.000000000000000000, 0.0000000000000000000 ) ) ;
#147 = LOCAL_TIME ( 17, 17, 30.00000000000000000, #66 ) ;
#148 = AXIS2_PLACEMENT_3D ( 'NONE', #324, #180, #27 ) ;
#149 = APPROVAL_PERSON_ORGANIZATION ( #379, #372, #204 ) ;
#150 = ORIENTED_EDGE ( 'NONE', *, *, #137, .T. ) ;
#151 = CYLINDRICAL_SURFACE ( 'NONE', #240, 7.000000000000000000 ) ;
#152 = AXIS2_PLACEMENT_3D ( 'NONE', #2, #224, #337 ) ;
#153 = EDGE_CURVE ( 'NONE', #76, #158, #318, .T. ) ;
#154 = DIRECTION ( 'NONE',  ( 0.0000000000000000000, 0.0000000000000000000, -1.000000000000000000 ) ) ;
#155 = SHAPE_DEFINITION_REPRESENTATION ( #322, #306 ) ;
#156 = CARTESIAN_POINT ( 'NONE',  ( 0.0000000000000000000, -350.0000000000000000, 7.000000000000000000 ) ) ;
#157 = PERSON_AND_ORGANIZATION ( #293, #69 ) ;
#158 = VERTEX_POINT ( 'NONE', #33 ) ;
#159 = VECTOR ( 'NONE', #125, 1000.000000000000000 ) ;
#160 = APPROVAL_PERSON_ORGANIZATION ( #171, #234, #74 ) ;
#161 = DIRECTION ( 'NONE',  ( 1.000000000000000000, 0.0000000000000000000, 0.0000000000000000000 ) ) ;
#162 = FACE_OUTER_BOUND ( 'NONE', #380, .T. ) ;
#163 = EDGE_CURVE ( 'NONE', #314, #75, #129, .T. ) ;
#164 = AXIS2_PLACEMENT_3D ( 'NONE', #178, #226, #188 ) ;
#165 = ADVANCED_FACE ( 'NONE', ( #248 ), #344, .T. ) ;
#166 = CALENDAR_DATE ( 2018, 6, 8 ) ;
#167 = EDGE_LOOP ( 'NONE', ( #199, #375 ) ) ;
#168 = DIRECTION ( 'NONE',  ( 0.0000000000000000000, 0.0000000000000000000, 1.000000000000000000 ) ) ;
#169 = ORIENTED_EDGE ( 'NONE', *, *, #377, .T. ) ;
#170 = EDGE_CURVE ( 'NONE', #328, #314, #113, .T. ) ;
#171 = PERSON_AND_ORGANIZATION ( #293, #69 ) ;
#172 = SECURITY_CLASSIFICATION ( '', '', #320 ) ;
#173 = AXIS2_PLACEMENT_3D ( 'NONE', #115, #291, #269 ) ;
#174 = ORIENTED_EDGE ( 'NONE', *, *, #153, .F. ) ;
#175 = DATE_TIME_ROLE ( 'creation_date' ) ;
#176 = DIRECTION ( 'NONE',  ( -0.0000000000000000000, -1.000000000000000000, -0.0000000000000000000 ) ) ;
#177 = PERSON_AND_ORGANIZATION ( #293, #69 ) ;
#178 = CARTESIAN_POINT ( 'NONE',  ( 150.0000000000000000, 8.000000000000000000, 0.0000000000000000000 ) ) ;
#179 = ORIENTED_EDGE ( 'NONE', *, *, #250, .F. ) ;
#180 = DIRECTION ( 'NONE',  ( -1.000000000000000000, -0.0000000000000000000, -0.0000000000000000000 ) ) ;
#181 = CIRCLE ( 'NONE', #208, 7.000000000000000000 ) ;
#182 = LOCAL_TIME ( 17, 17, 30.00000000000000000, #83 ) ;
#183 = DIRECTION ( 'NONE',  ( 0.0000000000000000000, 1.000000000000000000, 0.0000000000000000000 ) ) ;
#184 = CARTESIAN_POINT ( 'NONE',  ( -150.0000000000000000, 8.000000000000000000, 7.000000000000000000 ) ) ;
#185 = CARTESIAN_POINT ( 'NONE',  ( 0.0000000000000000000, -344.8038475772933100, 7.000000000000000000 ) ) ;
#186 = FACE_OUTER_BOUND ( 'NONE', #255, .T. ) ;
#187 = DIRECTION ( 'NONE',  ( 0.0000000000000000000, 0.0000000000000000000, -1.000000000000000000 ) ) ;
#188 = DIRECTION ( 'NONE',  ( 0.0000000000000000000, 0.0000000000000000000, 1.000000000000000000 ) ) ;
#189 = CARTESIAN_POINT ( 'NONE',  ( 150.0000000000000000, 8.000000000000000000, 0.0000000000000000000 ) ) ;
#190 = FACE_OUTER_BOUND ( 'NONE', #206, .T. ) ;
#191 = CALENDAR_DATE ( 2018, 6, 8 ) ;
#192 = CARTESIAN_POINT ( 'NONE',  ( -150.0000000000000000, 8.000000000000000000, -7.000000000000000000 ) ) ;
#193 = VERTEX_POINT ( 'NONE', #383 ) ;
#194 = VERTEX_POINT ( 'NONE', #185 ) ;
#195 = DIRECTION ( 'NONE',  ( 0.0000000000000000000, -0.0000000000000000000, 1.000000000000000000 ) ) ;
#196 = CC_DESIGN_PERSON_AND_ORGANIZATION_ASSIGNMENT ( #107, #20, ( #172 ) ) ;
#197 = ORIENTED_EDGE ( 'NONE', *, *, #369, .F. ) ;
#198 = ADVANCED_FACE ( 'NONE', ( #186 ), #236, .T. ) ;
#199 = ORIENTED_EDGE ( 'NONE', *, *, #72, .F. ) ;
#200 = CALENDAR_DATE ( 2018, 6, 8 ) ;
#201 = DIRECTION ( 'NONE',  ( 1.000000000000000000, 0.0000000000000000000, 0.0000000000000000000 ) ) ;
#202 = ORIENTED_EDGE ( 'NONE', *, *, #85, .F. ) ;
#203 = AXIS2_PLACEMENT_3D ( 'NONE', #382, #146, #210 ) ;
#204 = APPROVAL_ROLE ( '' ) ;
#205 = FACE_BOUND ( 'NONE', #358, .T. ) ;
#206 = EDGE_LOOP ( 'NONE', ( #179, #134, #272, #340 ) ) ;
#207 = DIRECTION ( 'NONE',  ( 0.0000000000000000000, 0.0000000000000000000, 1.000000000000000000 ) ) ;
#208 = AXIS2_PLACEMENT_3D ( 'NONE', #302, #101, #278 ) ;
#209 = CARTESIAN_POINT ( 'NONE',  ( 150.0000000000000000, 8.000000000000000000, -7.000000000000000000 ) ) ;
#210 = DIRECTION ( 'NONE',  ( 0.0000000000000000000, 0.0000000000000000000, 1.000000000000000000 ) ) ;
#211 = LINE ( 'NONE', #156, #53 ) ;
#212 = CC_DESIGN_DATE_AND_TIME_ASSIGNMENT ( #281, #284, ( #172 ) ) ;
#213 = CLOSED_SHELL ( 'NONE', ( #165, #104, #229, #280, #68, #350 ) ) ;
#214 = AXIS2_PLACEMENT_3D ( 'NONE', #49, #287, #207 ) ;
#215 = AXIS2_PLACEMENT_3D ( 'NONE', #376, #176, #352 ) ;
#216 =( GEOMETRIC_REPRESENTATION_CONTEXT ( 3 ) GLOBAL_UNCERTAINTY_ASSIGNED_CONTEXT ( ( #18 ) ) GLOBAL_UNIT_ASSIGNED_CONTEXT ( ( #327, #242, #135 ) ) REPRESENTATION_CONTEXT ( 'NONE', 'WORKASPACE' ) );
#217 = CARTESIAN_POINT ( 'NONE',  ( -150.0000000000000000, 8.000000000000000000, 0.0000000000000000000 ) ) ;
#218 = PLANE ( 'NONE',  #11 ) ;
#219 = DIRECTION ( 'NONE',  ( -0.0000000000000000000, 1.000000000000000000, -0.0000000000000000000 ) ) ;
#220 = EDGE_LOOP ( 'NONE', ( #58, #16, #282, #80 ) ) ;
#221 = AXIS2_PLACEMENT_3D ( 'NONE', #189, #361, #154 ) ;
#222 = VERTEX_POINT ( 'NONE', #184 ) ;
#223 = AXIS2_PLACEMENT_3D ( 'NONE', #217, #384, #187 ) ;
#224 = DIRECTION ( 'NONE',  ( 0.0000000000000000000, 1.000000000000000000, 0.0000000000000000000 ) ) ;
#225 = FACE_OUTER_BOUND ( 'NONE', #220, .T. ) ;
#226 = DIRECTION ( 'NONE',  ( -1.000000000000000000, -0.0000000000000000000, -0.0000000000000000000 ) ) ;
#227 = CIRCLE ( 'NONE', #223, 7.000000000000000000 ) ;
#228 = ORIENTED_EDGE ( 'NONE', *, *, #19, .T. ) ;
#229 = ADVANCED_FACE ( 'NONE', ( #67 ), #265, .T. ) ;
#230 = EDGE_CURVE ( 'NONE', #245, #75, #122, .T. ) ;
#231 = CIRCLE ( 'NONE', #93, 7.000000000000000000 ) ;
#232 = ORIENTED_EDGE ( 'NONE', *, *, #38, .F. ) ;
#233 = ORIENTED_EDGE ( 'NONE', *, *, #102, .T. ) ;
#234 = APPROVAL ( #264, 'UNSPECIFIED' ) ;
#235 = PERSON_AND_ORGANIZATION ( #293, #69 ) ;
#236 = CYLINDRICAL_SURFACE ( 'NONE', #112, 8.599999999999999600 ) ;
#237 = APPLICATION_PROTOCOL_DEFINITION ( 'international standard', 'config_control_design', 1994, #355 ) ;
#238 = EDGE_LOOP ( 'NONE', ( #46, #40, #99, #91 ) ) ;
#239 = VERTEX_POINT ( 'NONE', #144 ) ;
#240 = AXIS2_PLACEMENT_3D ( 'NONE', #1, #387, #59 ) ;
#241 = DIRECTION ( 'NONE',  ( 0.0000000000000000000, 0.0000000000000000000, 1.000000000000000000 ) ) ;
#242 =( NAMED_UNIT ( * ) PLANE_ANGLE_UNIT ( ) SI_UNIT ( $, .RADIAN. ) );
#243 = DIRECTION ( 'NONE',  ( 0.0000000000000000000, -0.0000000000000000000, 1.000000000000000000 ) ) ;
#244 = DATE_AND_TIME ( #96, #260 ) ;
#245 = VERTEX_POINT ( 'NONE', #330 ) ;
#246 = DIRECTION ( 'NONE',  ( 1.000000000000000000, 0.0000000000000000000, 0.0000000000000000000 ) ) ;
#247 = DIRECTION ( 'NONE',  ( 0.0000000000000000000, 0.0000000000000000000, 1.000000000000000000 ) ) ;
#248 = FACE_OUTER_BOUND ( 'NONE', #257, .T. ) ;
#249 = DIRECTION ( 'NONE',  ( 0.0000000000000000000, 0.0000000000000000000, -1.000000000000000000 ) ) ;
#250 = EDGE_CURVE ( 'NONE', #143, #116, #385, .T. ) ;
#251 = DIRECTION ( 'NONE',  ( 0.0000000000000000000, 1.000000000000000000, 0.0000000000000000000 ) ) ;
#252 = COORDINATED_UNIVERSAL_TIME_OFFSET ( 1, 0, .AHEAD. ) ;
#253 = FACE_OUTER_BOUND ( 'NONE', #167, .T. ) ;
#254 = DATE_AND_TIME ( #200, #182 ) ;
#255 = EDGE_LOOP ( 'NONE', ( #63, #368, #312, #82 ) ) ;
#256 = CC_DESIGN_APPROVAL ( #234, ( #172 ) ) ;
#257 = EDGE_LOOP ( 'NONE', ( #133, #304, #381, #232 ) ) ;
#258 = DESIGN_CONTEXT ( 'detailed design', #355, 'design' ) ;
#259 = AXIS2_PLACEMENT_3D ( 'NONE', #117, #292, #90 ) ;
#260 = LOCAL_TIME ( 17, 17, 30.00000000000000000, #252 ) ;
#261 = ADVANCED_FACE ( 'NONE', ( #370, #279 ), #141, .T. ) ;
#262 = ORIENTED_EDGE ( 'NONE', *, *, #120, .T. ) ;
#263 = ORIENTED_EDGE ( 'NONE', *, *, #163, .F. ) ;
#264 = APPROVAL_STATUS ( 'not_yet_approved' ) ;
#265 = CYLINDRICAL_SURFACE ( 'NONE', #203, 7.000000000000000000 ) ;
#266 = APPROVAL_DATE_TIME ( #70, #372 ) ;
#267 = DIRECTION ( 'NONE',  ( 0.0000000000000000000, 0.0000000000000000000, 1.000000000000000000 ) ) ;
#268 = CALENDAR_DATE ( 2018, 6, 8 ) ;
#269 = DIRECTION ( 'NONE',  ( 0.0000000000000000000, 0.0000000000000000000, -1.000000000000000000 ) ) ;
#270 = CC_DESIGN_SECURITY_CLASSIFICATION ( #172, ( #64 ) ) ;
#271 = CARTESIAN_POINT ( 'NONE',  ( 150.0000000000000000, 8.000000000000000000, 0.0000000000000000000 ) ) ;
#272 = ORIENTED_EDGE ( 'NONE', *, *, #38, .T. ) ;
#273 = DIRECTION ( 'NONE',  ( 1.000000000000000000, 0.0000000000000000000, 0.0000000000000000000 ) ) ;
#274 = CARTESIAN_POINT ( 'NONE',  ( 0.0000000000000000000, -350.0000000000000000, 0.0000000000000000000 ) ) ;
#275 = EDGE_LOOP ( 'NONE', ( #367, #303, #131, #26 ) ) ;
#276 = AXIS2_PLACEMENT_3D ( 'NONE', #92, #273, #56 ) ;
#277 = DIRECTION ( 'NONE',  ( 1.000000000000000000, 0.0000000000000000000, 0.0000000000000000000 ) ) ;
#278 = DIRECTION ( 'NONE',  ( 0.0000000000000000000, 0.0000000000000000000, 1.000000000000000000 ) ) ;
#279 = FACE_BOUND ( 'NONE', #345, .T. ) ;
#280 = ADVANCED_FACE ( 'NONE', ( #3 ), #51, .F. ) ;
#281 = DATE_AND_TIME ( #268, #147 ) ;
#282 = ORIENTED_EDGE ( 'NONE', *, *, #142, .F. ) ;
#283 = PRODUCT_RELATED_PRODUCT_CATEGORY ( 'detail', '', ( #338 ) ) ;
#284 = DATE_TIME_ROLE ( 'classification_date' ) ;
#285 = ORIENTED_EDGE ( 'NONE', *, *, #126, .T. ) ;
#286 = APPLICATION_PROTOCOL_DEFINITION ( 'international standard', 'config_control_design', 1994, #108 ) ;
#287 = DIRECTION ( 'NONE',  ( -0.0000000000000000000, 1.000000000000000000, -0.0000000000000000000 ) ) ;
#288 = CARTESIAN_POINT ( 'NONE',  ( 0.0000000000000000000, -344.8038475772933100, 0.0000000000000000000 ) ) ;
#289 = DIRECTION ( 'NONE',  ( 6.123233995736695800E-017, 0.8660254037844420400, -0.4999999999999943400 ) ) ;
#290 = VERTEX_POINT ( 'NONE', #378 ) ;
#291 = DIRECTION ( 'NONE',  ( 1.000000000000000000, 0.0000000000000000000, 0.0000000000000000000 ) ) ;
#292 = DIRECTION ( 'NONE',  ( 1.000000000000000000, 0.0000000000000000000, 0.0000000000000000000 ) ) ;
#293 = PERSON ( 'UNSPECIFIED', 'UNSPECIFIED', 'UNSPECIFIED', ('UNSPECIFIED'), ('UNSPECIFIED'), ('UNSPECIFIED') ) ;
#294 = CARTESIAN_POINT ( 'NONE',  ( 0.0000000000000000000, 0.0000000000000000000, 0.0000000000000000000 ) ) ;
#295 = ORIENTED_EDGE ( 'NONE', *, *, #363, .T. ) ;
#296 = CARTESIAN_POINT ( 'NONE',  ( 150.0000000000000000, 8.000000000000001800, -8.599999999999999600 ) ) ;
#297 = DIRECTION ( 'NONE',  ( 0.0000000000000000000, 1.000000000000000000, 0.0000000000000000000 ) ) ;
#298 = EDGE_CURVE ( 'NONE', #76, #100, #311, .T. ) ;
#299 = AXIS2_PLACEMENT_3D ( 'NONE', #37, #6, #195 ) ;
#300 = COORDINATED_UNIVERSAL_TIME_OFFSET ( 1, 0, .AHEAD. ) ;
#301 = APPROVAL_DATE_TIME ( #317, #87 ) ;
#302 = CARTESIAN_POINT ( 'NONE',  ( 0.0000000000000000000, -344.8038475772933100, 0.0000000000000000000 ) ) ;
#303 = ORIENTED_EDGE ( 'NONE', *, *, #153, .T. ) ;
#304 = ORIENTED_EDGE ( 'NONE', *, *, #250, .T. ) ;
#305 = CARTESIAN_POINT ( 'NONE',  ( 8.572527594031473200E-016, -350.0000000000000000, -7.000000000000000000 ) ) ;
#306 = ADVANCED_BREP_SHAPE_REPRESENTATION ( 'B022', ( #84, #315, #88 ), #216 ) ;
#307 = DIRECTION ( 'NONE',  ( 0.0000000000000000000, 0.8660254037844420400, 0.4999999999999943400 ) ) ;
#308 = AXIS2_PLACEMENT_3D ( 'NONE', #294, #309, #319 ) ;
#309 = DIRECTION ( 'NONE',  ( 0.0000000000000000000, 1.000000000000000000, 0.0000000000000000000 ) ) ;
#310 = VECTOR ( 'NONE', #354, 1000.000000000000000 ) ;
#311 = LINE ( 'NONE', #209, #310 ) ;
#312 = ORIENTED_EDGE ( 'NONE', *, *, #163, .T. ) ;
#313 = VECTOR ( 'NONE', #307, 999.9999999999998900 ) ;
#314 = VERTEX_POINT ( 'NONE', #136 ) ;
#315 = MANIFOLD_SOLID_BREP ( 'Boss.-Extru.2', #10 ) ;
#316 = ADVANCED_FACE ( 'NONE', ( #225 ), #9, .F. ) ;
#317 = DATE_AND_TIME ( #166, #5 ) ;
#318 = CIRCLE ( 'NONE', #259, 7.000000000000000000 ) ;
#319 = DIRECTION ( 'NONE',  ( 0.0000000000000000000, 0.0000000000000000000, 1.000000000000000000 ) ) ;
#320 = SECURITY_CLASSIFICATION_LEVEL ( 'unclassified' ) ;
#321 = EDGE_LOOP ( 'NONE', ( #150, #128 ) ) ;
#322 = PRODUCT_DEFINITION_SHAPE ( 'NONE', 'NONE',  #357 ) ;
#323 = EDGE_CURVE ( 'NONE', #239, #143, #73, .T. ) ;
#324 = CARTESIAN_POINT ( 'NONE',  ( 150.0000000000000000, 8.000000000000000000, 0.0000000000000000000 ) ) ;
#325 = AXIS2_PLACEMENT_3D ( 'NONE', #98, #277, #60 ) ;
#326 = CIRCLE ( 'NONE', #276, 8.599999999999999600 ) ;
#327 =( LENGTH_UNIT ( ) NAMED_UNIT ( * ) SI_UNIT ( .MILLI., .METRE. ) );
#328 = VERTEX_POINT ( 'NONE', #24 ) ;
#329 = DIRECTION ( 'NONE',  ( 1.000000000000000000, 0.0000000000000000000, 0.0000000000000000000 ) ) ;
#330 = CARTESIAN_POINT ( 'NONE',  ( -150.0000000000000000, 8.000000000000001800, -8.599999999999999600 ) ) ;
#331 = DIRECTION ( 'NONE',  ( -1.000000000000000000, -0.0000000000000000000, -0.0000000000000000000 ) ) ;
#332 = LOCAL_TIME ( 17, 17, 30.00000000000000000, #300 ) ;
#333 = CARTESIAN_POINT ( 'NONE',  ( 0.0000000000000000000, -344.8038475772933100, 0.0000000000000000000 ) ) ;
#334 = DIRECTION ( 'NONE',  ( 0.0000000000000000000, 0.0000000000000000000, -1.000000000000000000 ) ) ;
#335 = DIRECTION ( 'NONE',  ( -1.000000000000000000, -0.0000000000000000000, -0.0000000000000000000 ) ) ;
#336 = AXIS2_PLACEMENT_3D ( 'NONE', #52, #246, #28 ) ;
#337 = DIRECTION ( 'NONE',  ( 0.0000000000000000000, 0.0000000000000000000, 1.000000000000000000 ) ) ;
#338 = PRODUCT ( 'B022', 'B022', '', ( #347 ) ) ;
#339 = FACE_OUTER_BOUND ( 'NONE', #21, .T. ) ;
#340 = ORIENTED_EDGE ( 'NONE', *, *, #50, .F. ) ;
#341 = LINE ( 'NONE', #118, #313 ) ;
#342 = CARTESIAN_POINT ( 'NONE',  ( 150.0000000000000000, 8.000000000000000000, 7.000000000000000000 ) ) ;
#343 = CC_DESIGN_PERSON_AND_ORGANIZATION_ASSIGNMENT ( #349, #140, ( #338 ) ) ;
#344 = CONICAL_SURFACE ( 'NONE', #65, 7.000000000000000000, 0.5235987755982922700 ) ;
#345 = EDGE_LOOP ( 'NONE', ( #348, #174 ) ) ;
#346 = EDGE_LOOP ( 'NONE', ( #386, #228 ) ) ;
#347 = MECHANICAL_CONTEXT ( 'NONE', #108, 'mechanical' ) ;
#348 = ORIENTED_EDGE ( 'NONE', *, *, #106, .F. ) ;
#349 = PERSON_AND_ORGANIZATION ( #293, #69 ) ;
#350 = ADVANCED_FACE ( 'NONE', ( #190 ), #366, .T. ) ;
#351 = PERSON_AND_ORGANIZATION_ROLE ( 'creator' ) ;
#352 = DIRECTION ( 'NONE',  ( 0.0000000000000000000, 0.0000000000000000000, 1.000000000000000000 ) ) ;
#353 = ORIENTED_EDGE ( 'NONE', *, *, #170, .F. ) ;
#354 = DIRECTION ( 'NONE',  ( -1.000000000000000000, -0.0000000000000000000, -0.0000000000000000000 ) ) ;
#355 = APPLICATION_CONTEXT ( 'configuration controlled 3d designs of mechanical parts and assemblies' ) ;
#356 = CARTESIAN_POINT ( 'NONE',  ( 150.0000000000000000, 8.000000000000000000, 0.0000000000000000000 ) ) ;
#357 = PRODUCT_DEFINITION ( 'UNKNOWN', '', #64, #258 ) ;
#358 = EDGE_LOOP ( 'NONE', ( #31, #262 ) ) ;
#359 = CARTESIAN_POINT ( 'NONE',  ( 150.0000000000000000, 8.000000000000000000, 8.599999999999999600 ) ) ;
#360 = CARTESIAN_POINT ( 'NONE',  ( -150.0000000000000000, 8.000000000000000000, 0.0000000000000000000 ) ) ;
#361 = DIRECTION ( 'NONE',  ( 1.000000000000000000, 0.0000000000000000000, 0.0000000000000000000 ) ) ;
#362 = CARTESIAN_POINT ( 'NONE',  ( 8.572527594031473200E-016, -344.8038475772933100, -7.000000000000000000 ) ) ;
#363 = EDGE_CURVE ( 'NONE', #116, #290, #61, .T. ) ;
#364 = CARTESIAN_POINT ( 'NONE',  ( 150.0000000000000000, 8.000000000000000000, -7.000000000000000000 ) ) ;
#365 = VECTOR ( 'NONE', #289, 999.9999999999998900 ) ;
#366 = CONICAL_SURFACE ( 'NONE', #214, 7.000000000000000000, 0.5235987755982922700 ) ;
#367 = ORIENTED_EDGE ( 'NONE', *, *, #298, .F. ) ;
#368 = ORIENTED_EDGE ( 'NONE', *, *, #137, .F. ) ;
#369 = EDGE_CURVE ( 'NONE', #193, #290, #139, .T. ) ;
#370 = FACE_OUTER_BOUND ( 'NONE', #321, .T. ) ;
#371 = CIRCLE ( 'NONE', #23, 4.000000000000031100 ) ;
#372 = APPROVAL ( #47, 'UNSPECIFIED' ) ;
#373 = APPROVAL_STATUS ( 'not_yet_approved' ) ;
#374 = AXIS2_PLACEMENT_3D ( 'NONE', #123, #297, #95 ) ;
#375 = ORIENTED_EDGE ( 'NONE', *, *, #230, .F. ) ;
#376 = CARTESIAN_POINT ( 'NONE',  ( 0.0000000000000000000, -350.0000000000000000, 0.0000000000000000000 ) ) ;
#377 = EDGE_CURVE ( 'NONE', #194, #116, #4, .T. ) ;
#378 = CARTESIAN_POINT ( 'NONE',  ( 8.572527594031473200E-016, 0.0000000000000000000, -7.000000000000000000 ) ) ;
#379 = PERSON_AND_ORGANIZATION ( #293, #69 ) ;
#380 = EDGE_LOOP ( 'NONE', ( #353, #285, #105, #263 ) ) ;
#381 = ORIENTED_EDGE ( 'NONE', *, *, #377, .F. ) ;
#382 = CARTESIAN_POINT ( 'NONE',  ( 0.0000000000000000000, -350.0000000000000000, 0.0000000000000000000 ) ) ;
#383 = CARTESIAN_POINT ( 'NONE',  ( 0.0000000000000000000, 0.0000000000000000000, 7.000000000000000000 ) ) ;
#384 = DIRECTION ( 'NONE',  ( 1.000000000000000000, 0.0000000000000000000, 0.0000000000000000000 ) ) ;
#385 = LINE ( 'NONE', #86, #365 ) ;
#386 = ORIENTED_EDGE ( 'NONE', *, *, #323, .T. ) ;
#387 = DIRECTION ( 'NONE',  ( -1.000000000000000000, -0.0000000000000000000, -0.0000000000000000000 ) ) ;
ENDSEC;
END-ISO-10303-21;
