ISO-10303-21;
HEADER;
FILE_DESCRIPTION(('CATIA V5 STEP Exchange'),'2;1');

FILE_NAME('C:\\Users\\Yannick\\Desktop\\ASY_Sys_LEVAGE_CRIC\\STEP\\02-14-0011.stp','2018-08-16T09:22:05+00:00',('none'),('none'),'Version 5-6 Release 2012','CATIA V5 STEP AP203','none');

FILE_SCHEMA(('CONFIG_CONTROL_DESIGN'));

ENDSEC;
DATA;
#5=PRODUCT('02-14-0011','','',(#2)) ;
#1=APPLICATION_CONTEXT('configuration controlled 3D design of mechanical parts and assemblies') ;
#14=PRODUCT_DEFINITION('PRT_PATIN_LEVAGE',' ',#6,#3) ;
#16=SECURITY_CLASSIFICATION(' ',' ',#15) ;
#15=SECURITY_CLASSIFICATION_LEVEL('unclassified') ;
#47=CARTESIAN_POINT(' ',(0.,0.,0.)) ;
#52=CARTESIAN_POINT('Axis2P3D Location',(0.,0.,8.80661699359)) ;
#57=CARTESIAN_POINT('Line Origine',(-0.906981577714,0.495486294147,9.40330849679)) ;
#61=CARTESIAN_POINT('Vertex',(0.,0.,8.80661699359)) ;
#63=CARTESIAN_POINT('Vertex',(-1.81396315543,0.990972588295,10.)) ;
#66=CARTESIAN_POINT('Axis2P3D Location',(0.,0.,10.)) ;
#70=CARTESIAN_POINT('Vertex',(1.81396315543,-0.990972588295,10.)) ;
#73=CARTESIAN_POINT('Line Origine',(0.906981577714,-0.495486294147,9.40330849679)) ;
#84=CARTESIAN_POINT('Axis2P3D Location',(0.,-20.,22.)) ;
#89=CARTESIAN_POINT('Line Origine',(0.,-20.,30.)) ;
#93=CARTESIAN_POINT('Vertex',(-15.,-20.,30.)) ;
#95=CARTESIAN_POINT('Vertex',(15.,-20.,30.)) ;
#98=CARTESIAN_POINT('Line Origine',(-15.,-20.,26.)) ;
#102=CARTESIAN_POINT('Vertex',(-15.,-20.,22.)) ;
#105=CARTESIAN_POINT('Line Origine',(0.,-20.,22.)) ;
#109=CARTESIAN_POINT('Vertex',(15.,-20.,22.)) ;
#112=CARTESIAN_POINT('Line Origine',(15.,-20.,26.)) ;
#124=CARTESIAN_POINT('Axis2P3D Location',(-15.,0.,0.)) ;
#129=CARTESIAN_POINT('Line Origine',(-15.,0.,30.)) ;
#133=CARTESIAN_POINT('Vertex',(-15.,20.,30.)) ;
#136=CARTESIAN_POINT('Line Origine',(-15.,20.,26.)) ;
#140=CARTESIAN_POINT('Vertex',(-15.,20.,22.)) ;
#143=CARTESIAN_POINT('Line Origine',(-15.,25.,17.5)) ;
#147=CARTESIAN_POINT('Vertex',(-15.,30.,13.)) ;
#150=CARTESIAN_POINT('Line Origine',(-15.,30.,6.5)) ;
#154=CARTESIAN_POINT('Vertex',(-15.,30.,0.)) ;
#157=CARTESIAN_POINT('Line Origine',(-15.,0.,0.)) ;
#161=CARTESIAN_POINT('Vertex',(-15.,-30.,-4.7162194137E-015)) ;
#164=CARTESIAN_POINT('Line Origine',(-15.,-30.,6.5)) ;
#168=CARTESIAN_POINT('Vertex',(-15.,-30.,13.)) ;
#171=CARTESIAN_POINT('Line Origine',(-15.,-25.,17.5)) ;
#186=CARTESIAN_POINT('Axis2P3D Location',(-15.,-17.5,10.)) ;
#190=CARTESIAN_POINT('Vertex',(-15.,-20.4166456444,11.5933707776)) ;
#192=CARTESIAN_POINT('Vertex',(-15.,-14.5833543556,8.40662922245)) ;
#195=CARTESIAN_POINT('Axis2P3D Location',(-15.,-17.5,10.)) ;
#204=CARTESIAN_POINT('Axis2P3D Location',(-15.,17.5,10.)) ;
#208=CARTESIAN_POINT('Vertex',(-15.,20.4166456444,8.40662922245)) ;
#210=CARTESIAN_POINT('Vertex',(-15.,14.5833543556,11.5933707776)) ;
#213=CARTESIAN_POINT('Axis2P3D Location',(-15.,17.5,10.)) ;
#223=CARTESIAN_POINT('Axis2P3D Location',(0.,-30.,13.)) ;
#228=CARTESIAN_POINT('Line Origine',(0.,-30.,13.)) ;
#232=CARTESIAN_POINT('Vertex',(15.,-30.,13.)) ;
#235=CARTESIAN_POINT('Line Origine',(15.,-25.,17.5)) ;
#247=CARTESIAN_POINT('Axis2P3D Location',(14.9,-17.5,10.)) ;
#252=CARTESIAN_POINT('Line Origine',(0.,-20.4166456444,11.5933707776)) ;
#256=CARTESIAN_POINT('Vertex',(15.,-20.4166456444,11.5933707776)) ;
#259=CARTESIAN_POINT('Line Origine',(0.,-14.5833543556,8.40662922245)) ;
#263=CARTESIAN_POINT('Vertex',(15.,-14.5833543556,8.40662922245)) ;
#266=CARTESIAN_POINT('Axis2P3D Location',(15.,-17.5,10.)) ;
#278=CARTESIAN_POINT('Axis2P3D Location',(15.,-17.5,10.)) ;
#290=CARTESIAN_POINT('Axis2P3D Location',(14.9,17.5,10.)) ;
#295=CARTESIAN_POINT('Line Origine',(0.,20.4166456444,8.40662922245)) ;
#299=CARTESIAN_POINT('Vertex',(15.,20.4166456444,8.40662922245)) ;
#302=CARTESIAN_POINT('Line Origine',(0.,14.5833543556,11.5933707776)) ;
#306=CARTESIAN_POINT('Vertex',(15.,14.5833543556,11.5933707776)) ;
#309=CARTESIAN_POINT('Axis2P3D Location',(15.,17.5,10.)) ;
#321=CARTESIAN_POINT('Axis2P3D Location',(15.,17.5,10.)) ;
#333=CARTESIAN_POINT('Axis2P3D Location',(0.,30.,13.)) ;
#338=CARTESIAN_POINT('Line Origine',(0.,30.,13.)) ;
#342=CARTESIAN_POINT('Vertex',(15.,30.,13.)) ;
#345=CARTESIAN_POINT('Line Origine',(0.,20.,22.)) ;
#349=CARTESIAN_POINT('Vertex',(15.,20.,22.)) ;
#352=CARTESIAN_POINT('Line Origine',(15.,25.,17.5)) ;
#364=CARTESIAN_POINT('Axis2P3D Location',(0.,30.,3.98006270134E-015)) ;
#369=CARTESIAN_POINT('Line Origine',(0.,30.,3.98006270134E-015)) ;
#373=CARTESIAN_POINT('Vertex',(15.,30.,0.)) ;
#376=CARTESIAN_POINT('Line Origine',(15.,30.,6.5)) ;
#388=CARTESIAN_POINT('Axis2P3D Location',(0.,30.,0.)) ;
#393=CARTESIAN_POINT('Line Origine',(0.,-30.,0.)) ;
#397=CARTESIAN_POINT('Vertex',(15.,-30.,-4.7162194137E-015)) ;
#400=CARTESIAN_POINT('Line Origine',(15.,0.,0.)) ;
#412=CARTESIAN_POINT('Axis2P3D Location',(0.,-30.,-4.7162194137E-015)) ;
#417=CARTESIAN_POINT('Line Origine',(15.,-30.,6.5)) ;
#429=CARTESIAN_POINT('Axis2P3D Location',(0.,20.,30.)) ;
#434=CARTESIAN_POINT('Line Origine',(0.,20.,30.)) ;
#438=CARTESIAN_POINT('Vertex',(15.,20.,30.)) ;
#441=CARTESIAN_POINT('Line Origine',(15.,20.,26.)) ;
#453=CARTESIAN_POINT('Axis2P3D Location',(15.,0.,0.)) ;
#458=CARTESIAN_POINT('Line Origine',(15.,0.,30.)) ;
#482=CARTESIAN_POINT('Axis2P3D Location',(0.,-20.,30.)) ;
#493=CARTESIAN_POINT('Axis2P3D Location',(-5.55111512313E-016,0.,30.)) ;
#497=CARTESIAN_POINT('Vertex',(-1.81396315543,0.990972588295,30.)) ;
#499=CARTESIAN_POINT('Vertex',(1.81396315543,-0.990972588295,30.)) ;
#502=CARTESIAN_POINT('Axis2P3D Location',(-4.4408920985E-016,0.,30.)) ;
#512=CARTESIAN_POINT('Axis2P3D Location',(0.,0.,29.9)) ;
#517=CARTESIAN_POINT('Line Origine',(-1.81396315543,0.990972588295,20.1550000002)) ;
#522=CARTESIAN_POINT('Axis2P3D Location',(0.,0.,10.)) ;
#527=CARTESIAN_POINT('Line Origine',(1.81396315543,-0.990972588295,20.1550000002)) ;
#53=DIRECTION('Axis2P3D Direction',(0.,0.,1.)) ;
#54=DIRECTION('Axis2P3D XDirection',(0.87758256189,-0.479425538604,0.)) ;
#58=DIRECTION('Vector Direction',(-0.760008792515,0.415194695654,0.5)) ;
#67=DIRECTION('Axis2P3D Direction',(0.,0.,1.)) ;
#74=DIRECTION('Vector Direction',(0.760008792515,-0.415194695654,0.5)) ;
#85=DIRECTION('Axis2P3D Direction',(0.,1.,0.)) ;
#86=DIRECTION('Axis2P3D XDirection',(0.,0.,1.)) ;
#90=DIRECTION('Vector Direction',(1.,0.,0.)) ;
#99=DIRECTION('Vector Direction',(0.,0.,1.)) ;
#106=DIRECTION('Vector Direction',(1.,0.,0.)) ;
#113=DIRECTION('Vector Direction',(0.,0.,1.)) ;
#125=DIRECTION('Axis2P3D Direction',(1.,0.,0.)) ;
#126=DIRECTION('Axis2P3D XDirection',(0.,1.,0.)) ;
#130=DIRECTION('Vector Direction',(0.,1.,0.)) ;
#137=DIRECTION('Vector Direction',(0.,0.,-1.)) ;
#144=DIRECTION('Vector Direction',(0.,-0.743294146247,0.668964731622)) ;
#151=DIRECTION('Vector Direction',(0.,0.,1.)) ;
#158=DIRECTION('Vector Direction',(0.,-1.,0.)) ;
#165=DIRECTION('Vector Direction',(0.,0.,1.)) ;
#172=DIRECTION('Vector Direction',(0.,0.743294146247,0.668964731622)) ;
#187=DIRECTION('Axis2P3D Direction',(1.,0.,0.)) ;
#196=DIRECTION('Axis2P3D Direction',(1.,0.,0.)) ;
#205=DIRECTION('Axis2P3D Direction',(1.,0.,0.)) ;
#214=DIRECTION('Axis2P3D Direction',(1.,0.,0.)) ;
#224=DIRECTION('Axis2P3D Direction',(0.,0.668964731622,-0.743294146247)) ;
#225=DIRECTION('Axis2P3D XDirection',(0.,0.743294146247,0.668964731622)) ;
#229=DIRECTION('Vector Direction',(1.,0.,0.)) ;
#236=DIRECTION('Vector Direction',(0.,0.743294146247,0.668964731622)) ;
#248=DIRECTION('Axis2P3D Direction',(-1.,0.,-0.)) ;
#249=DIRECTION('Axis2P3D XDirection',(0.,0.87758256189,-0.479425538604)) ;
#253=DIRECTION('Vector Direction',(-1.,0.,0.)) ;
#260=DIRECTION('Vector Direction',(-1.,0.,0.)) ;
#267=DIRECTION('Axis2P3D Direction',(-1.,0.,-0.)) ;
#279=DIRECTION('Axis2P3D Direction',(-1.,0.,-0.)) ;
#291=DIRECTION('Axis2P3D Direction',(-1.,0.,-0.)) ;
#292=DIRECTION('Axis2P3D XDirection',(0.,0.87758256189,-0.479425538604)) ;
#296=DIRECTION('Vector Direction',(-1.,0.,0.)) ;
#303=DIRECTION('Vector Direction',(-1.,0.,0.)) ;
#310=DIRECTION('Axis2P3D Direction',(-1.,0.,-0.)) ;
#322=DIRECTION('Axis2P3D Direction',(-1.,0.,-0.)) ;
#334=DIRECTION('Axis2P3D Direction',(-0.,0.668964731622,0.743294146247)) ;
#335=DIRECTION('Axis2P3D XDirection',(0.,-0.743294146247,0.668964731622)) ;
#339=DIRECTION('Vector Direction',(1.,0.,0.)) ;
#346=DIRECTION('Vector Direction',(1.,0.,0.)) ;
#353=DIRECTION('Vector Direction',(0.,-0.743294146247,0.668964731622)) ;
#365=DIRECTION('Axis2P3D Direction',(0.,1.,0.)) ;
#366=DIRECTION('Axis2P3D XDirection',(0.,0.,1.)) ;
#370=DIRECTION('Vector Direction',(1.,0.,0.)) ;
#377=DIRECTION('Vector Direction',(0.,0.,1.)) ;
#389=DIRECTION('Axis2P3D Direction',(-0.,0.,1.)) ;
#390=DIRECTION('Axis2P3D XDirection',(0.,-1.,0.)) ;
#394=DIRECTION('Vector Direction',(1.,0.,0.)) ;
#401=DIRECTION('Vector Direction',(0.,-1.,0.)) ;
#413=DIRECTION('Axis2P3D Direction',(0.,1.,0.)) ;
#414=DIRECTION('Axis2P3D XDirection',(0.,0.,1.)) ;
#418=DIRECTION('Vector Direction',(0.,0.,1.)) ;
#430=DIRECTION('Axis2P3D Direction',(0.,-1.,0.)) ;
#431=DIRECTION('Axis2P3D XDirection',(0.,0.,-1.)) ;
#435=DIRECTION('Vector Direction',(1.,0.,0.)) ;
#442=DIRECTION('Vector Direction',(0.,0.,-1.)) ;
#454=DIRECTION('Axis2P3D Direction',(1.,0.,0.)) ;
#455=DIRECTION('Axis2P3D XDirection',(0.,1.,0.)) ;
#459=DIRECTION('Vector Direction',(0.,1.,0.)) ;
#483=DIRECTION('Axis2P3D Direction',(0.,0.,-1.)) ;
#484=DIRECTION('Axis2P3D XDirection',(0.,1.,0.)) ;
#494=DIRECTION('Axis2P3D Direction',(0.,0.,-1.)) ;
#503=DIRECTION('Axis2P3D Direction',(0.,0.,-1.)) ;
#513=DIRECTION('Axis2P3D Direction',(0.,-0.,-1.)) ;
#514=DIRECTION('Axis2P3D XDirection',(0.87758256189,-0.479425538604,0.)) ;
#518=DIRECTION('Vector Direction',(0.,0.,-1.)) ;
#523=DIRECTION('Axis2P3D Direction',(0.,-0.,-1.)) ;
#528=DIRECTION('Vector Direction',(0.,0.,-1.)) ;
#48=AXIS2_PLACEMENT_3D(' ',#47,$,$) ;
#55=AXIS2_PLACEMENT_3D('Cone Axis2P3D',#52,#53,#54) ;
#68=AXIS2_PLACEMENT_3D('Circle Axis2P3D',#66,#67,$) ;
#87=AXIS2_PLACEMENT_3D('Plane Axis2P3D',#84,#85,#86) ;
#127=AXIS2_PLACEMENT_3D('Plane Axis2P3D',#124,#125,#126) ;
#188=AXIS2_PLACEMENT_3D('Circle Axis2P3D',#186,#187,$) ;
#197=AXIS2_PLACEMENT_3D('Circle Axis2P3D',#195,#196,$) ;
#206=AXIS2_PLACEMENT_3D('Circle Axis2P3D',#204,#205,$) ;
#215=AXIS2_PLACEMENT_3D('Circle Axis2P3D',#213,#214,$) ;
#226=AXIS2_PLACEMENT_3D('Plane Axis2P3D',#223,#224,#225) ;
#250=AXIS2_PLACEMENT_3D('Cylinder Axis2P3D',#247,#248,#249) ;
#268=AXIS2_PLACEMENT_3D('Circle Axis2P3D',#266,#267,$) ;
#280=AXIS2_PLACEMENT_3D('Circle Axis2P3D',#278,#279,$) ;
#293=AXIS2_PLACEMENT_3D('Cylinder Axis2P3D',#290,#291,#292) ;
#311=AXIS2_PLACEMENT_3D('Circle Axis2P3D',#309,#310,$) ;
#323=AXIS2_PLACEMENT_3D('Circle Axis2P3D',#321,#322,$) ;
#336=AXIS2_PLACEMENT_3D('Plane Axis2P3D',#333,#334,#335) ;
#367=AXIS2_PLACEMENT_3D('Plane Axis2P3D',#364,#365,#366) ;
#391=AXIS2_PLACEMENT_3D('Plane Axis2P3D',#388,#389,#390) ;
#415=AXIS2_PLACEMENT_3D('Plane Axis2P3D',#412,#413,#414) ;
#432=AXIS2_PLACEMENT_3D('Plane Axis2P3D',#429,#430,#431) ;
#456=AXIS2_PLACEMENT_3D('Plane Axis2P3D',#453,#454,#455) ;
#485=AXIS2_PLACEMENT_3D('Plane Axis2P3D',#482,#483,#484) ;
#495=AXIS2_PLACEMENT_3D('Circle Axis2P3D',#493,#494,$) ;
#504=AXIS2_PLACEMENT_3D('Circle Axis2P3D',#502,#503,$) ;
#515=AXIS2_PLACEMENT_3D('Cylinder Axis2P3D',#512,#513,#514) ;
#524=AXIS2_PLACEMENT_3D('Circle Axis2P3D',#522,#523,$) ;
#40=PRODUCT_DEFINITION_SHAPE(' ',' ',#14) ;
#31=APPROVAL_PERSON_ORGANIZATION(#25,#21,#19) ;
#25=PERSON_AND_ORGANIZATION(#22,#23) ;
#22=PERSON(' ',' ',' ',$,$,$) ;
#23=ORGANIZATION(' ',' ',' ') ;
#21=APPROVAL(#20,' ') ;
#20=APPROVAL_STATUS('not_yet_approved') ;
#19=APPROVAL_ROLE('APPROVER') ;
#13=DATE_AND_TIME(#11,#12) ;
#12=LOCAL_TIME(11,22,5.,#10) ;
#10=COORDINATED_UNIVERSAL_TIME_OFFSET(0,0,.AHEAD.) ;
#79=ORIENTED_EDGE('',*,*,#65,.T.) ;
#80=ORIENTED_EDGE('',*,*,#72,.F.) ;
#81=ORIENTED_EDGE('',*,*,#77,.F.) ;
#118=ORIENTED_EDGE('',*,*,#97,.F.) ;
#119=ORIENTED_EDGE('',*,*,#104,.T.) ;
#120=ORIENTED_EDGE('',*,*,#111,.T.) ;
#121=ORIENTED_EDGE('',*,*,#116,.F.) ;
#177=ORIENTED_EDGE('',*,*,#135,.F.) ;
#178=ORIENTED_EDGE('',*,*,#142,.F.) ;
#179=ORIENTED_EDGE('',*,*,#149,.F.) ;
#180=ORIENTED_EDGE('',*,*,#156,.F.) ;
#181=ORIENTED_EDGE('',*,*,#163,.F.) ;
#182=ORIENTED_EDGE('',*,*,#170,.F.) ;
#183=ORIENTED_EDGE('',*,*,#175,.F.) ;
#184=ORIENTED_EDGE('',*,*,#104,.F.) ;
#201=ORIENTED_EDGE('',*,*,#194,.T.) ;
#202=ORIENTED_EDGE('',*,*,#199,.T.) ;
#219=ORIENTED_EDGE('',*,*,#212,.T.) ;
#220=ORIENTED_EDGE('',*,*,#217,.T.) ;
#241=ORIENTED_EDGE('',*,*,#111,.F.) ;
#242=ORIENTED_EDGE('',*,*,#175,.T.) ;
#243=ORIENTED_EDGE('',*,*,#234,.T.) ;
#244=ORIENTED_EDGE('',*,*,#239,.F.) ;
#272=ORIENTED_EDGE('',*,*,#258,.F.) ;
#273=ORIENTED_EDGE('',*,*,#199,.F.) ;
#274=ORIENTED_EDGE('',*,*,#265,.T.) ;
#275=ORIENTED_EDGE('',*,*,#270,.T.) ;
#284=ORIENTED_EDGE('',*,*,#265,.F.) ;
#285=ORIENTED_EDGE('',*,*,#194,.F.) ;
#286=ORIENTED_EDGE('',*,*,#258,.T.) ;
#287=ORIENTED_EDGE('',*,*,#282,.T.) ;
#315=ORIENTED_EDGE('',*,*,#301,.F.) ;
#316=ORIENTED_EDGE('',*,*,#217,.F.) ;
#317=ORIENTED_EDGE('',*,*,#308,.T.) ;
#318=ORIENTED_EDGE('',*,*,#313,.T.) ;
#327=ORIENTED_EDGE('',*,*,#308,.F.) ;
#328=ORIENTED_EDGE('',*,*,#212,.F.) ;
#329=ORIENTED_EDGE('',*,*,#301,.T.) ;
#330=ORIENTED_EDGE('',*,*,#325,.T.) ;
#358=ORIENTED_EDGE('',*,*,#344,.F.) ;
#359=ORIENTED_EDGE('',*,*,#149,.T.) ;
#360=ORIENTED_EDGE('',*,*,#351,.T.) ;
#361=ORIENTED_EDGE('',*,*,#356,.F.) ;
#382=ORIENTED_EDGE('',*,*,#375,.F.) ;
#383=ORIENTED_EDGE('',*,*,#156,.T.) ;
#384=ORIENTED_EDGE('',*,*,#344,.T.) ;
#385=ORIENTED_EDGE('',*,*,#380,.F.) ;
#406=ORIENTED_EDGE('',*,*,#399,.F.) ;
#407=ORIENTED_EDGE('',*,*,#163,.T.) ;
#408=ORIENTED_EDGE('',*,*,#375,.T.) ;
#409=ORIENTED_EDGE('',*,*,#404,.F.) ;
#423=ORIENTED_EDGE('',*,*,#234,.F.) ;
#424=ORIENTED_EDGE('',*,*,#170,.T.) ;
#425=ORIENTED_EDGE('',*,*,#399,.T.) ;
#426=ORIENTED_EDGE('',*,*,#421,.F.) ;
#447=ORIENTED_EDGE('',*,*,#351,.F.) ;
#448=ORIENTED_EDGE('',*,*,#142,.T.) ;
#449=ORIENTED_EDGE('',*,*,#440,.T.) ;
#450=ORIENTED_EDGE('',*,*,#445,.F.) ;
#464=ORIENTED_EDGE('',*,*,#116,.T.) ;
#465=ORIENTED_EDGE('',*,*,#239,.T.) ;
#466=ORIENTED_EDGE('',*,*,#421,.T.) ;
#467=ORIENTED_EDGE('',*,*,#404,.T.) ;
#468=ORIENTED_EDGE('',*,*,#380,.T.) ;
#469=ORIENTED_EDGE('',*,*,#356,.T.) ;
#470=ORIENTED_EDGE('',*,*,#445,.T.) ;
#471=ORIENTED_EDGE('',*,*,#462,.T.) ;
#474=ORIENTED_EDGE('',*,*,#270,.F.) ;
#475=ORIENTED_EDGE('',*,*,#282,.F.) ;
#478=ORIENTED_EDGE('',*,*,#313,.F.) ;
#479=ORIENTED_EDGE('',*,*,#325,.F.) ;
#488=ORIENTED_EDGE('',*,*,#440,.F.) ;
#489=ORIENTED_EDGE('',*,*,#135,.T.) ;
#490=ORIENTED_EDGE('',*,*,#97,.T.) ;
#491=ORIENTED_EDGE('',*,*,#462,.F.) ;
#508=ORIENTED_EDGE('',*,*,#501,.T.) ;
#509=ORIENTED_EDGE('',*,*,#506,.T.) ;
#533=ORIENTED_EDGE('',*,*,#501,.F.) ;
#534=ORIENTED_EDGE('',*,*,#521,.F.) ;
#535=ORIENTED_EDGE('',*,*,#526,.T.) ;
#536=ORIENTED_EDGE('',*,*,#531,.T.) ;
#540=ORIENTED_EDGE('',*,*,#506,.F.) ;
#541=ORIENTED_EDGE('',*,*,#531,.F.) ;
#542=ORIENTED_EDGE('',*,*,#72,.T.) ;
#543=ORIENTED_EDGE('',*,*,#521,.T.) ;
#547=ORIENTED_EDGE('',*,*,#77,.T.) ;
#548=ORIENTED_EDGE('',*,*,#526,.F.) ;
#549=ORIENTED_EDGE('',*,*,#65,.F.) ;
#203=FACE_BOUND('',#200,.T.) ;
#221=FACE_BOUND('',#218,.T.) ;
#476=FACE_BOUND('',#473,.T.) ;
#480=FACE_BOUND('',#477,.T.) ;
#510=FACE_BOUND('',#507,.T.) ;
#51=CLOSED_SHELL('Closed Shell',(#83,#123,#222,#246,#277,#289,#320,#332,#363,#387,#411,#428,#452,#481,#511,#538,#545,#551)) ;
#59=VECTOR('Line Direction',#58,1.) ;
#75=VECTOR('Line Direction',#74,1.) ;
#91=VECTOR('Line Direction',#90,1.) ;
#100=VECTOR('Line Direction',#99,1.) ;
#107=VECTOR('Line Direction',#106,1.) ;
#114=VECTOR('Line Direction',#113,1.) ;
#131=VECTOR('Line Direction',#130,1.) ;
#138=VECTOR('Line Direction',#137,1.) ;
#145=VECTOR('Line Direction',#144,1.) ;
#152=VECTOR('Line Direction',#151,1.) ;
#159=VECTOR('Line Direction',#158,1.) ;
#166=VECTOR('Line Direction',#165,1.) ;
#173=VECTOR('Line Direction',#172,1.) ;
#230=VECTOR('Line Direction',#229,1.) ;
#237=VECTOR('Line Direction',#236,1.) ;
#254=VECTOR('Line Direction',#253,1.) ;
#261=VECTOR('Line Direction',#260,1.) ;
#297=VECTOR('Line Direction',#296,1.) ;
#304=VECTOR('Line Direction',#303,1.) ;
#340=VECTOR('Line Direction',#339,1.) ;
#347=VECTOR('Line Direction',#346,1.) ;
#354=VECTOR('Line Direction',#353,1.) ;
#371=VECTOR('Line Direction',#370,1.) ;
#378=VECTOR('Line Direction',#377,1.) ;
#395=VECTOR('Line Direction',#394,1.) ;
#402=VECTOR('Line Direction',#401,1.) ;
#419=VECTOR('Line Direction',#418,1.) ;
#436=VECTOR('Line Direction',#435,1.) ;
#443=VECTOR('Line Direction',#442,1.) ;
#460=VECTOR('Line Direction',#459,1.) ;
#519=VECTOR('Line Direction',#518,1.) ;
#529=VECTOR('Line Direction',#528,1.) ;
#553=ADVANCED_BREP_SHAPE_REPRESENTATION('NONE',(#552),#46) ;
#49=SHAPE_REPRESENTATION(' ',(#48),#46) ;
#83=ADVANCED_FACE('Corps principal',(#82),#56,.F.) ;
#123=ADVANCED_FACE('Corps principal',(#122),#88,.F.) ;
#222=ADVANCED_FACE('Corps principal',(#185,#203,#221),#128,.F.) ;
#246=ADVANCED_FACE('Corps principal',(#245),#227,.F.) ;
#277=ADVANCED_FACE('Corps principal',(#276),#251,.F.) ;
#289=ADVANCED_FACE('Corps principal',(#288),#251,.F.) ;
#320=ADVANCED_FACE('Corps principal',(#319),#294,.F.) ;
#332=ADVANCED_FACE('Corps principal',(#331),#294,.F.) ;
#363=ADVANCED_FACE('Corps principal',(#362),#337,.T.) ;
#387=ADVANCED_FACE('Corps principal',(#386),#368,.T.) ;
#411=ADVANCED_FACE('Corps principal',(#410),#392,.F.) ;
#428=ADVANCED_FACE('Corps principal',(#427),#416,.F.) ;
#452=ADVANCED_FACE('Corps principal',(#451),#433,.F.) ;
#481=ADVANCED_FACE('Corps principal',(#472,#476,#480),#457,.T.) ;
#511=ADVANCED_FACE('Corps principal',(#492,#510),#486,.F.) ;
#538=ADVANCED_FACE('Corps principal',(#537),#516,.F.) ;
#545=ADVANCED_FACE('Corps principal',(#544),#516,.F.) ;
#551=ADVANCED_FACE('Corps principal',(#550),#56,.F.) ;
#4=APPLICATION_PROTOCOL_DEFINITION('international standard','config_control_design',1994,#1) ;
#32=APPROVAL_DATE_TIME(#13,#21) ;
#552=MANIFOLD_SOLID_BREP('Corps principal',#51) ;
#11=CALENDAR_DATE(2018,16,8) ;
#30=CC_DESIGN_APPROVAL(#21,(#16,#6,#14)) ;
#18=CC_DESIGN_DATE_AND_TIME_ASSIGNMENT(#13,#17,(#16)) ;
#29=CC_DESIGN_DATE_AND_TIME_ASSIGNMENT(#13,#28,(#14)) ;
#17=DATE_TIME_ROLE('classification_date') ;
#28=DATE_TIME_ROLE('creation_date') ;
#27=CC_DESIGN_PERSON_AND_ORGANIZATION_ASSIGNMENT(#25,#26,(#16)) ;
#33=CC_DESIGN_PERSON_AND_ORGANIZATION_ASSIGNMENT(#25,#34,(#6)) ;
#35=CC_DESIGN_PERSON_AND_ORGANIZATION_ASSIGNMENT(#25,#36,(#6,#14)) ;
#37=CC_DESIGN_PERSON_AND_ORGANIZATION_ASSIGNMENT(#25,#38,(#5)) ;
#26=PERSON_AND_ORGANIZATION_ROLE('classification_officer') ;
#34=PERSON_AND_ORGANIZATION_ROLE('design_supplier') ;
#36=PERSON_AND_ORGANIZATION_ROLE('creator') ;
#38=PERSON_AND_ORGANIZATION_ROLE('design_owner') ;
#39=CC_DESIGN_SECURITY_CLASSIFICATION(#16,(#6)) ;
#69=CIRCLE('generated circle',#68,2.067) ;
#189=CIRCLE('generated circle',#188,3.3235) ;
#198=CIRCLE('generated circle',#197,3.3235) ;
#207=CIRCLE('generated circle',#206,3.3235) ;
#216=CIRCLE('generated circle',#215,3.3235) ;
#269=CIRCLE('generated circle',#268,3.3235) ;
#281=CIRCLE('generated circle',#280,3.3235) ;
#312=CIRCLE('generated circle',#311,3.3235) ;
#324=CIRCLE('generated circle',#323,3.3235) ;
#496=CIRCLE('generated circle',#495,2.067) ;
#505=CIRCLE('generated circle',#504,2.067) ;
#525=CIRCLE('generated circle',#524,2.067) ;
#56=CONICAL_SURFACE('Cone',#55,0.,1.0471975512) ;
#554=SHAPE_REPRESENTATION_RELATIONSHIP(' ',' ',#49,#553) ;
#251=CYLINDRICAL_SURFACE('generated cylinder',#250,3.3235) ;
#294=CYLINDRICAL_SURFACE('generated cylinder',#293,3.3235) ;
#516=CYLINDRICAL_SURFACE('generated cylinder',#515,2.067) ;
#3=DESIGN_CONTEXT(' ',#1,'design') ;
#65=EDGE_CURVE('',#62,#64,#60,.T.) ;
#72=EDGE_CURVE('',#71,#64,#69,.F.) ;
#77=EDGE_CURVE('',#62,#71,#76,.T.) ;
#97=EDGE_CURVE('',#94,#96,#92,.T.) ;
#104=EDGE_CURVE('',#94,#103,#101,.F.) ;
#111=EDGE_CURVE('',#103,#110,#108,.T.) ;
#116=EDGE_CURVE('',#96,#110,#115,.F.) ;
#135=EDGE_CURVE('',#134,#94,#132,.F.) ;
#142=EDGE_CURVE('',#141,#134,#139,.F.) ;
#149=EDGE_CURVE('',#148,#141,#146,.T.) ;
#156=EDGE_CURVE('',#155,#148,#153,.T.) ;
#163=EDGE_CURVE('',#162,#155,#160,.F.) ;
#170=EDGE_CURVE('',#169,#162,#167,.F.) ;
#175=EDGE_CURVE('',#103,#169,#174,.F.) ;
#194=EDGE_CURVE('',#191,#193,#189,.T.) ;
#199=EDGE_CURVE('',#193,#191,#198,.T.) ;
#212=EDGE_CURVE('',#209,#211,#207,.T.) ;
#217=EDGE_CURVE('',#211,#209,#216,.T.) ;
#234=EDGE_CURVE('',#169,#233,#231,.T.) ;
#239=EDGE_CURVE('',#110,#233,#238,.F.) ;
#258=EDGE_CURVE('',#191,#257,#255,.F.) ;
#265=EDGE_CURVE('',#193,#264,#262,.F.) ;
#270=EDGE_CURVE('',#264,#257,#269,.F.) ;
#282=EDGE_CURVE('',#257,#264,#281,.F.) ;
#301=EDGE_CURVE('',#209,#300,#298,.F.) ;
#308=EDGE_CURVE('',#211,#307,#305,.F.) ;
#313=EDGE_CURVE('',#307,#300,#312,.F.) ;
#325=EDGE_CURVE('',#300,#307,#324,.F.) ;
#344=EDGE_CURVE('',#148,#343,#341,.T.) ;
#351=EDGE_CURVE('',#141,#350,#348,.T.) ;
#356=EDGE_CURVE('',#343,#350,#355,.T.) ;
#375=EDGE_CURVE('',#155,#374,#372,.T.) ;
#380=EDGE_CURVE('',#374,#343,#379,.T.) ;
#399=EDGE_CURVE('',#162,#398,#396,.T.) ;
#404=EDGE_CURVE('',#398,#374,#403,.F.) ;
#421=EDGE_CURVE('',#233,#398,#420,.F.) ;
#440=EDGE_CURVE('',#134,#439,#437,.T.) ;
#445=EDGE_CURVE('',#350,#439,#444,.F.) ;
#462=EDGE_CURVE('',#439,#96,#461,.F.) ;
#501=EDGE_CURVE('',#498,#500,#496,.T.) ;
#506=EDGE_CURVE('',#500,#498,#505,.T.) ;
#521=EDGE_CURVE('',#64,#498,#520,.F.) ;
#526=EDGE_CURVE('',#64,#71,#525,.T.) ;
#531=EDGE_CURVE('',#71,#500,#530,.F.) ;
#78=EDGE_LOOP('',(#79,#80,#81)) ;
#117=EDGE_LOOP('',(#118,#119,#120,#121)) ;
#176=EDGE_LOOP('',(#177,#178,#179,#180,#181,#182,#183,#184)) ;
#200=EDGE_LOOP('',(#201,#202)) ;
#218=EDGE_LOOP('',(#219,#220)) ;
#240=EDGE_LOOP('',(#241,#242,#243,#244)) ;
#271=EDGE_LOOP('',(#272,#273,#274,#275)) ;
#283=EDGE_LOOP('',(#284,#285,#286,#287)) ;
#314=EDGE_LOOP('',(#315,#316,#317,#318)) ;
#326=EDGE_LOOP('',(#327,#328,#329,#330)) ;
#357=EDGE_LOOP('',(#358,#359,#360,#361)) ;
#381=EDGE_LOOP('',(#382,#383,#384,#385)) ;
#405=EDGE_LOOP('',(#406,#407,#408,#409)) ;
#422=EDGE_LOOP('',(#423,#424,#425,#426)) ;
#446=EDGE_LOOP('',(#447,#448,#449,#450)) ;
#463=EDGE_LOOP('',(#464,#465,#466,#467,#468,#469,#470,#471)) ;
#473=EDGE_LOOP('',(#474,#475)) ;
#477=EDGE_LOOP('',(#478,#479)) ;
#487=EDGE_LOOP('',(#488,#489,#490,#491)) ;
#507=EDGE_LOOP('',(#508,#509)) ;
#532=EDGE_LOOP('',(#533,#534,#535,#536)) ;
#539=EDGE_LOOP('',(#540,#541,#542,#543)) ;
#546=EDGE_LOOP('',(#547,#548,#549)) ;
#82=FACE_OUTER_BOUND('',#78,.T.) ;
#122=FACE_OUTER_BOUND('',#117,.T.) ;
#185=FACE_OUTER_BOUND('',#176,.T.) ;
#245=FACE_OUTER_BOUND('',#240,.T.) ;
#276=FACE_OUTER_BOUND('',#271,.T.) ;
#288=FACE_OUTER_BOUND('',#283,.T.) ;
#319=FACE_OUTER_BOUND('',#314,.T.) ;
#331=FACE_OUTER_BOUND('',#326,.T.) ;
#362=FACE_OUTER_BOUND('',#357,.T.) ;
#386=FACE_OUTER_BOUND('',#381,.T.) ;
#410=FACE_OUTER_BOUND('',#405,.T.) ;
#427=FACE_OUTER_BOUND('',#422,.T.) ;
#451=FACE_OUTER_BOUND('',#446,.T.) ;
#472=FACE_OUTER_BOUND('',#463,.T.) ;
#492=FACE_OUTER_BOUND('',#487,.T.) ;
#537=FACE_OUTER_BOUND('',#532,.T.) ;
#544=FACE_OUTER_BOUND('',#539,.T.) ;
#550=FACE_OUTER_BOUND('',#546,.T.) ;
#45=UNCERTAINTY_MEASURE_WITH_UNIT(LENGTH_MEASURE(0.005),#41,'distance_accuracy_value','CONFUSED CURVE UNCERTAINTY') ;
#60=LINE('Line',#57,#59) ;
#76=LINE('Line',#73,#75) ;
#92=LINE('Line',#89,#91) ;
#101=LINE('Line',#98,#100) ;
#108=LINE('Line',#105,#107) ;
#115=LINE('Line',#112,#114) ;
#132=LINE('Line',#129,#131) ;
#139=LINE('Line',#136,#138) ;
#146=LINE('Line',#143,#145) ;
#153=LINE('Line',#150,#152) ;
#160=LINE('Line',#157,#159) ;
#167=LINE('Line',#164,#166) ;
#174=LINE('Line',#171,#173) ;
#231=LINE('Line',#228,#230) ;
#238=LINE('Line',#235,#237) ;
#255=LINE('Line',#252,#254) ;
#262=LINE('Line',#259,#261) ;
#298=LINE('Line',#295,#297) ;
#305=LINE('Line',#302,#304) ;
#341=LINE('Line',#338,#340) ;
#348=LINE('Line',#345,#347) ;
#355=LINE('Line',#352,#354) ;
#372=LINE('Line',#369,#371) ;
#379=LINE('Line',#376,#378) ;
#396=LINE('Line',#393,#395) ;
#403=LINE('Line',#400,#402) ;
#420=LINE('Line',#417,#419) ;
#437=LINE('Line',#434,#436) ;
#444=LINE('Line',#441,#443) ;
#461=LINE('Line',#458,#460) ;
#520=LINE('Line',#517,#519) ;
#530=LINE('Line',#527,#529) ;
#2=MECHANICAL_CONTEXT(' ',#1,'mechanical') ;
#24=PERSONAL_ADDRESS(' ',' ',' ',' ',' ',' ',' ',' ',' ',' ',' ',' ',(#22),' ') ;
#88=PLANE('',#87) ;
#128=PLANE('',#127) ;
#227=PLANE('',#226) ;
#337=PLANE('',#336) ;
#368=PLANE('',#367) ;
#392=PLANE('',#391) ;
#416=PLANE('',#415) ;
#433=PLANE('',#432) ;
#457=PLANE('',#456) ;
#486=PLANE('',#485) ;
#43=PLANE_ANGLE_MEASURE_WITH_UNIT(PLANE_ANGLE_MEASURE(0.0174532925199),#42) ;
#7=PRODUCT_CATEGORY('part',$) ;
#9=PRODUCT_CATEGORY_RELATIONSHIP(' ',' ',#7,#8) ;
#6=PRODUCT_DEFINITION_FORMATION_WITH_SPECIFIED_SOURCE('',' ',#5,.MADE.) ;
#8=PRODUCT_RELATED_PRODUCT_CATEGORY('detail',$,(#5)) ;
#50=SHAPE_DEFINITION_REPRESENTATION(#40,#49) ;
#62=VERTEX_POINT('',#61) ;
#64=VERTEX_POINT('',#63) ;
#71=VERTEX_POINT('',#70) ;
#94=VERTEX_POINT('',#93) ;
#96=VERTEX_POINT('',#95) ;
#103=VERTEX_POINT('',#102) ;
#110=VERTEX_POINT('',#109) ;
#134=VERTEX_POINT('',#133) ;
#141=VERTEX_POINT('',#140) ;
#148=VERTEX_POINT('',#147) ;
#155=VERTEX_POINT('',#154) ;
#162=VERTEX_POINT('',#161) ;
#169=VERTEX_POINT('',#168) ;
#191=VERTEX_POINT('',#190) ;
#193=VERTEX_POINT('',#192) ;
#209=VERTEX_POINT('',#208) ;
#211=VERTEX_POINT('',#210) ;
#233=VERTEX_POINT('',#232) ;
#257=VERTEX_POINT('',#256) ;
#264=VERTEX_POINT('',#263) ;
#300=VERTEX_POINT('',#299) ;
#307=VERTEX_POINT('',#306) ;
#343=VERTEX_POINT('',#342) ;
#350=VERTEX_POINT('',#349) ;
#374=VERTEX_POINT('',#373) ;
#398=VERTEX_POINT('',#397) ;
#439=VERTEX_POINT('',#438) ;
#498=VERTEX_POINT('',#497) ;
#500=VERTEX_POINT('',#499) ;
#41=(LENGTH_UNIT()NAMED_UNIT(*)SI_UNIT(.MILLI.,.METRE.)) ;
#42=(NAMED_UNIT(*)PLANE_ANGLE_UNIT()SI_UNIT($,.RADIAN.)) ;
#44=(NAMED_UNIT(*)SI_UNIT($,.STERADIAN.)SOLID_ANGLE_UNIT()) ;
#46=(GEOMETRIC_REPRESENTATION_CONTEXT(3)GLOBAL_UNCERTAINTY_ASSIGNED_CONTEXT((#45))GLOBAL_UNIT_ASSIGNED_CONTEXT((#41,#42,#44))REPRESENTATION_CONTEXT(' ',' ')) ;
ENDSEC;
END-ISO-10303-21;
